To celebrate the anniversary, I am giving you (finally...) : iPhone LickByNeck !!!!!!
0 com

Lesson In Love (BASIC)

Level 42's song fingerstyle chord melody guitar BASIC arrangement played in the key of C.

Lesson In Love-Level 42-BASIC ARRANGEMENT played in the key of C.
http://classicalguitartablature.blogspot.com/
E|--------------------------------|--------------------------------|
B| 2---------- 3-------------- 3--|------------------------------ 2|
G| 2---------- 0-------------- 2--|------------------------------ 2|
D| 2---------- 0-------------- 3--|------------------------------ 2|
A| 0------------------------------|--------------------------------|
E|------------ 3-------------- 1--|--------------------------------|
http://classicalguitartablature.blogspot.com/
E|--------------------------------|--------------------------------|
B|------------ 3------------ 3----|---------------- 0-- 0----------|
G|------------ 0------------ 2----|-------------- 0-------- 2-- 0--|
D|------------ 0------------ 4----|--------------------------------|
A| 0-------------------------- 5--|--------------------------------|
E|------------ 3------------------|--------------------------------|
http://classicalguitartablature.blogspot.com/
http://classicalguitartablature.blogspot.com/
E|--------------------------------|---------------------- 0-- 0 0--|
B|---------------------- 1-- 1 1--|---------------- 0 0 0----------|
G| 0------------ 0-- 0 0----------|-------- 1 1 1------------------|
D|------ 2-- 2 2------------------| 2-- 2 2------------------------|
A| 3 3 3--------------------------|--------------------------------|
E|--------------------------------| 0------------------------------|
http://classicalguitartablature.blogspot.com/
E|--------------------------------|---------------------- 1-- 1 1--|
B|--------------------------------|-------------- 1-- 1 1----------|
G|---------------------- 2-- 2 2--|-------- 2 2 2------------------|
D|---------------- 2 2 2-------- 3|-- 3 3--------------------------|
A| 0 0-- 0-- 3-- 3 0--------------|------------------------------ 3|
E|--------------------------------| 1------------------------------|
http://classicalguitartablature.blogspot.com/
E|--------------------------------|---------------- 0--------------|
B|---- 1-------- 1------ 3---- 0--|------ 0---- 0-- 0-- 3---- 1----|
G|---- 0-------- 0----------------|------ 1---- 1------ 1---- 2----|
D|---- 2-------- 2-- 2------------|------ 2---- 2------------ 2----|
A|---------- 3--------------------|------------------------------ 0|
E|--------------------------------| 0---------- 0------------------|
http://classicalguitartablature.blogspot.com/
E|-------------------------- 0-- 1|---------- 1------ 3------ 0----|
B|---- 1---- 1------ 3------ 1-- 1|------ 1---------- 1------ 1----|
G|---- 2---- 2------ 2---------- 2|---------- 2-------- 2---- 0----|
D|---- 2---- 2------ 2------------|---- 3--------------------------|
A|------------ 0------------------|------------------------------ 3|
E|--------------------------------| 1---------- 1------------------|
http://classicalguitartablature.blogspot.com/
E|-------------- 0------ 3--------| 4---- 0---------- 0------------|
B|---- 1-------- 1------ 1--------| 3---- 3---- 3------ 3---- 3----|
G|---- 0-------- 0----------------| 4---- 4---- 4---- 4------ 2----|
D|---- 2------------ 2-------- 2--|---- 2------ 2------------ 2----|
A|------------ 3------------------|------------------------------ 0|
E|--------------------------------| 0---------- 0------------------|
http://classicalguitartablature.blogspot.com/
E|-------------------------- 0-- 1|---------- 1-------- 3---- 0----|
B|-- 1-------------- 3------------|------ 1-- 1-------- 1---- 1----|
G|-- 2------ 2------ 2---------- 2|-- 2-- 2-- 2-------- 2------ 0--|
D|-- 2------ 2------ 2------------|------ 3------------------------|
A|---------- 0--------------------|------------------------------ 3|
E|--------------------------------| 1---------- 1------------------|
http://classicalguitartablature.blogspot.com/
E|--------------------------------|-------------- 0----------------|
B| 3 1---------- 1------ 3---- 0--|---- 0---- 0-- 0-- 3------ 1----|
G|-------------- 0---------- 1----|---- 1---- 1------ 1------ 2----|
D|-------------- 2-- 2------------|---- 2---- 2--------------------|
A|---------- 3--------------------|------------------------------ 0|
E|--------------------------------| 0---------- 0------------------|
http://classicalguitartablature.blogspot.com/
E|-------------------------- 0-- 1|---------- 1------ 3------ 0----|
B|---- 1---- 1------ 3------ 1-- 1|------ 1---------- 1-------- 1--|
G|---- 2---- 2------ 2---------- 2|---------- 2-------- 2------ 0--|
D|---- 2---- 2------ 2------------|---- 3--------------------------|
A|---------- 0--------------------|------------------------------ 3|
E|--------------------------------| 1---------- 1------------------|
http://classicalguitartablature.blogspot.com/
E|-------------- 0------ 3--------| 4---- 0---------- 0------------|
B|-- 3---------- 1----------------| 3---- 3---- 3------ 3---- 3----|
G| 0 0------------ 0--------------| 4---- 4---- 4---- 4-------- 2--|
D|------------------ 2------ 2----|---- 2------ 2-------------- 2--|
A|------------ 3------------------|------------------------------ 0|
E|--------------------------------| 0---------- 0------------------|
http://classicalguitartablature.blogspot.com/
E|--------------------------------|--------------------------------|
B|---- 1---- 1-------------- 0-- 1|---- 1-------- 1------ 3-- 1----|
G|---- 2---- 2-------- 2----------| 2-- 2---- 2--------------------|
D|---- 2---- 2------------------ 3|---- 3---- 3------ 3------------|
A|------------ 0------------------|------------------------------ 5|
E|-------------------- 3----------| 1---------- 1------------------|
http://classicalguitartablature.blogspot.com/
E|---------------------- 0--------|--------------------------------|
B|------------------------------ 3|---------- 3-- 1-- 0------------|
G|-- 2---------- 2----------------| 1-------- 1-- 1------ 2---- 2--|
D|------ 3---------- 3------ 3----|---- 0---- 0-- 0----------------|
A|--------------------------------|------------------------------ 0|
E|--------------------------------| 0---------- 0------------------|
http://classicalguitartablature.blogspot.com/
E|--------------------------------|------------------ 0------------|
B|---- 1------ 1------------ 0-- 1|------ 1---- 1------------ 3-- 3|
G|------------ 2---- 2-- 0------ 2|------ 2---- 2---------------- 5|
D|------------ 2---------------- 3|------ 3---- 3------------------|
A|------------ 0---- 5------------|--------------------------------|
E|-------------------------- 0----| 1---------- 1------------------|
http://classicalguitartablature.blogspot.com/
E|--------------------------------|--------------------------------|
B|---- 3------------ 3------------|-------------- 1----------------|
G|---- 5---- 5------ 5---------- 2|------ 2---- 2---- 2-- 0-- 2-- 2|
D| 3-- 3---- 3------ 3---------- 2|------ 2---- 2------------------|
A| 5---------- 5---------- 5------|--------------------------------|
E|--------------------------------| 0---------- 0------------------|
http://classicalguitartablature.blogspot.com/
E|--------------------------------|-------------- 3---- 0----------|
B| 2-------- 3-------------- 3----|---------- 3-------------- 3-- 5|
G|------------ 0------------ 2----|------ 2---------------------- 2|
D|------------ 0------------ 3----|-- 3-------------------------- 2|
A| 0------------------------------|--------------------------------|
E|------------ 3------------ 1----|--------------------------------|
http://classicalguitartablature.blogspot.com/
E|--------------------------------|-------------- 8-- 7-- 5--------|
B|-- 3 2------ 3------------------|-------------------------- 8-- 8|
G|-- 2-------- 0------ 0---- 7----|------ 7---------------------- 5|
D|-- 2-------- 0------ 0---- 7----|-- 7------ 7------------------ 5|
A| 0-------------------------- 5--|--------------------------------|
E|------------ 3------------------|------------------------------ 8|
http://classicalguitartablature.blogspot.com/
E|--------------------------------|---------------------------- 1--|
B|------------ 8------ 8------ 8--| 8------ 6------ 5-- 6------ 1--|
G|------------ 5------ 5------ 5--| 7------ 7------ 7-- 7------ 2--|
D|------------ 5------------------|--------------------------------|
A|--------------------------------|--------------------------------|
E|-- 8---- 8-- 8-- 8-- 8-- 8-- 8--| 6-- 6-- 6-- 6-- 6-- 6-- 6------|
http://classicalguitartablature.blogspot.com/
E|--------------------------------|-------------- 8-- 7-- 5-- 3----|
B|------ 1---------- 1------ 1----|------------------------------ 8|
G|------ 2---------- 2------ 2-- 0|---------- 0------------------ 5|
D|------ 3---------- 3------ 3-- 0|---------- 0------------------ 5|
A|--------------------------------|--------------------------------|
E| 1-- 1-- 1 1---- 1-- 1 1---- 1 3|-- 3-- 3-- 3-- 3-- 3-- 3-- 3-- 8|
http://classicalguitartablature.blogspot.com/
E|--------------------------------|---------------------------- 1--|
B|------------ 8------ 8------ 8--| 8------ 6------ 5-- 6------ 1--|
G|------------ 5------ 5------ 5--| 7------ 7------ 7-- 7------ 2--|
D|------------ 5------------------|--------------------------------|
A|--------------------------------|--------------------------------|
E|-- 8---- 8-- 8-- 8-- 8-- 8-- 8--| 6-- 6-- 6-- 6-- 6-- 6-- 6------|
http://classicalguitartablature.blogspot.com/
E|--------------------------------|-------------- 8-- 7-- 5-- 3----|
B|------ 1---------- 1------ 1----|------------------------------ 8|
G|------ 2---------- 2------ 2-- 0|---------- 0--------------------|
D|------ 3---------- 3------ 3-- 0|---------- 0--------------------|
A|--------------------------------|--------------------------------|
E| 1-- 1-- 1 1---- 1-- 1 1---- 1 3|-- 3-- 3-- 3-- 3-- 3-- 3-- 3-- 8|
http://classicalguitartablature.blogspot.com/
E|-------------------------- 8-- 7|------ 4---------- 7-------- 5--|
B|---------- 8-------- 8-------- 5|------ 5-- 5------ 5-------- 5--|
G|------ 9------ 9----------------|---------- 4--------------------|
D|--10----------------------------|-- 6----------------------------|
A|--------------------------------|------------------------------ 0|
E|-------------- 8----------------| 0-------------- 0--------------|
http://classicalguitartablature.blogspot.com/
E|------------------------------ 1|------ 0------------------------|
B|---------- 5---------- 8------ 1|------ 1------ 3------ 1--------|
G|------ 5------------------------|-------------- 2---------- 5----|
D|-- 7-------------- 7------------|-- 3------ 3------ 3------------|
A|-------------- 0----------------|--------------------------------|
E|------------------------------ 1|-------------- 1----------------|
http://classicalguitartablature.blogspot.com/
E|-------------------------- 8-- 7|------------------12--13----12--|
B|---------- 5-- 5---- 8--------12|------ 9---------- 9--------10--|
G|------ 5------ 5-------------- 9|------ 9-- 9----------------12--|
D|-- 5---------- 5----------------|-- 9----------------------------|
A|--------------------------------|------------------------------ 0|
E| 8------------ 8----------------| 0-------------- 0--------------|
http://classicalguitartablature.blogspot.com/
E|----------12--------------------|--------------------------------|
B|------10------------------ 0-- 1|---- 1-------- 1------ 3-- 1----|
G|--12----------------------------| 2-- 2---- 2--------------------|
D|-------------------- 7-------- 3|---- 3---- 3------ 3------------|
A|-------------- 0-- 5------------|------------------------------ 5|
E|-------------------------- 0----| 1---------- 1------------------|
http://classicalguitartablature.blogspot.com/
E|---------------------- 0--------|--------------------------------|
B|------------------------------ 3|---------- 3-- 1-- 0------------|
G|-- 2---------- 2----------------| 1-------- 1-- 1------ 2---- 2--|
D|------ 3---------- 3------ 3----|---- 0---- 0-- 0----------------|
A|--------------------------------|------------------------------ 0|
E|--------------------------------| 0---------- 0------------------|
http://classicalguitartablature.blogspot.com/
E|--------------------------------|------------------ 0------------|
B|---- 1------ 1------------ 0-- 1|------ 1---- 1------------ 3-- 3|
G|------------ 2---- 2-- 0------ 2|------ 2---- 2---------------- 5|
D|------------ 2---------------- 3|------ 3---- 3------------------|
A|------------ 0---- 5------------|--------------------------------|
E|-------------------------- 0----| 1---------- 1------------------|
http://classicalguitartablature.blogspot.com/
E|--------------------------------|--------------------------------|
B|---- 3------------ 3------------|-------------- 1----------------|
G|---- 5---- 5------ 5---------- 2|------ 2---- 2---- 2-- 0-- 2-- 2|
D| 3-- 3---- 3------ 3---------- 2|------ 2---- 2------------------|
A| 5---------- 5---------- 5------|--------------------------------|
E|--------------------------------| 0---------- 0------------------|
http://classicalguitartablature.blogspot.com/
E|--------------------------------|-------------- 3---- 0----------|
B| 2-------- 3-------------- 3----|---------- 3-------------- 3-- 5|
G|------------ 0------------ 2----|------ 2---------------------- 2|
D|------------ 0------------ 3----|-- 3-------------------------- 2|
A| 0------------------------------|--------------------------------|
E|------------ 3------------ 1----|--------------------------------|
http://classicalguitartablature.blogspot.com/
E|--------------------------------|-------------- 8-- 7-- 5--------|
B|-- 3 2------ 3------------------|-------------------------- 8----|
G|-- 2-------- 0------ 0---- 7----|------ 7---------------------- 0|
D|-- 2-------- 0------ 0---- 7----|-- 7------ 7--------------------|
A| 0-------------------------- 5--|------------------------------ 3|
E|------------ 3------------------|--------------------------------|
http://classicalguitartablature.blogspot.com/
E| 3------------------------------|--------------------------------|
B| 1------------------------------|--------------------------------|
G|--------------------------------|--------------------------------|
D|--------------------------------|--------------------------------|
A|--------------------------------|--------------------------------|
E|--------------------------------|--------------------------------|
http://classicalguitartablature.blogspot.com/
0 com

Love You Like A Love Song (BASIC)

Selena Gomez And The Scene's tune fingerstyle chord melody guitar BASIC arrangement played in the key of C#m.

Love You Like A Love Song-Selena Gomez And The Scene-BASIC ARRANGEMENT played in the key of C#m.
http://classicalguitartablature.blogspot.com/
E|--------------------------------|--------------------------------|
B|--------------------------------|---------------------- 4-- 5-- 2|
G|---- 6------ 6---- 6------ 6----|-- 6------ 6-- 6-- 6---------- 4|
D|---- 6------ 6---- 6------ 6----|-- 6---------- 6-------------- 2|
A| 4-- 4-- 4-- 4 4-- 4-- 4-- 4-- 4|-- 4-- 4-- 4-- 4-------------- 4|
E|--------------------------------|--------------------------------|
http://classicalguitartablature.blogspot.com/
E|--------------------------------|--------------------------------|
B|-- 2-------------- 2-- 4-- 5----|-- 5-- 5---- 5---- 5---- 5-- 5--|
G|-- 4------ 4------ 4-- 4-- 4----|-- 2-- 2---------- 2---- 2------|
D|------ 2---------- 2-- 2--------|-- 2-- 2---- 2------------------|
A|-------------- 4----------------|--------------------------------|
E|--------------------------------| 2-------------- 2--------------|
http://classicalguitartablature.blogspot.com/
http://classicalguitartablature.blogspot.com/
E| 2------------------------------|--------------------------------|
B|---- 4------------------ 2-- 4--|---- 4------ 4---- 5---- 4 4-- 2|
G|------------ 2---- 4------ 4----|---- 4------ 4---- 4---- 4---- 2|
D|-------- 4------------------ 6--|------ 6------------------------|
A| 2-------------- 2--------------|------------------------------ 0|
E|--------------------------------| 0-------------- 0--------------|
http://classicalguitartablature.blogspot.com/
E|-------------------------- 0----|--------------------------------|
B|-- 2------------------ 2------ 2|-- 2----------------------------|
G|-- 2------ 2------ 4---------- 2|-- 2------ 2------ 1-- 1--------|
D|------ 2------------------------|------ 4------------------ 6-- 4|
A|-------------- 0-------------- 6|-------------- 6----------------|
E|--------------------------------|------------------------------ 4|
http://classicalguitartablature.blogspot.com/
E|--------------------------------|--------------------------------|
B|--------------------------------|-- 4------------------ 4-- 5-- 2|
G|------ 5------------------ 5-- 6|---------- 5------ 6---------- 4|
D|-- 6------ 6------ 6---- 6------|------ 6---------------------- 2|
A|--------------------------------|------------------------------ 4|
E|-------------- 4-------------- 4|-------------- 4----------------|
http://classicalguitartablature.blogspot.com/
E|--------------------------------|--------------------------------|
B|-- 2-------------- 2-- 4-- 5----|-- 5-- 5---- 5---- 5---- 5-- 5--|
G|-- 4------ 4------ 4-- 4-- 4----|-- 2-- 2---------- 2---- 2------|
D|------ 2---------- 2-- 2--------|-- 2-- 2---- 2------------------|
A|-------------- 4----------------|--------------------------------|
E|--------------------------------| 2-------------- 2--------------|
http://classicalguitartablature.blogspot.com/
E| 2------------------------------|--------------------------------|
B|---- 4------------------ 2-- 5--|---------- 5-------------- 5-- 2|
G|------------ 2---------------- 6|---- 6-------- 6-- 6---------- 2|
D|-------- 4-------- 4---------- 6|---- 6-- 6---- 6----------------|
A| 2-------------- 2--------------|------------------------------ 0|
E|--------------------------------| 0-------------- 0--------------|
http://classicalguitartablature.blogspot.com/
E|--------------------------------|--------------------------------|
B|-- 2----------------------------|--------------------------------|
G|-- 2------ 2---------- 1-- 1----|-- 1------ 1------ 1------------|
D|------ 2---------- 2------------|-------- 4------------ 4---- 6--|
A|-------------- 0-------------- 6|-------------- 6----------------|
E|--------------------------------|--------------------------------|
http://classicalguitartablature.blogspot.com/
E|-------------------------- 4----|--------------------------------|
B|------------ 4------------ 4----|-- 7-- 5-- 7------ 7------ 5-- 2|
G|------ 5------------------------|------ 5-- 5------ 5------------|
D|---- 6-------------- 6 6--------|-- 6-- 6-- 6------ 6---------- 2|
A|--------------------------------|------------------------------ 4|
E| 4-------------- 4------------ 4|-------------- 4----------------|
http://classicalguitartablature.blogspot.com/
E|------------------ 2------------|------------------ 2------------|
B|-- 5------ 5-- 5-- 2-- 2---- 4--| 5------ 5---- 5----------------|
G|-------------- 4----------------|-- 2---- 2---- 2---------- 2----|
D|------ 2-------- 2--------------| 2-- 2------ 2 2------ 2--------|
A|---------------- 4--------------|------------------------------ 2|
E|--------------------------------| 2-------------- 2--------------|
http://classicalguitartablature.blogspot.com/
E|------------------ 2---------- 0|------ 0-------- 0-- 2----------|
B|-- 5------ 5-- 5------ 2-- 4-- 0|------ 0-------- 0-- 0----------|
G|-- 2------ 2-- 2----------------|---------------------------- 1--|
D|-- 4---------- 4----------------|---- 2------ 2---------- 2------|
A|-------------- 2----------------|--------------------------------|
E|--------------------------------| 0-------------- 0--------------|
http://classicalguitartablature.blogspot.com/
E|------------------ 2---------- 5|------ 4------------------------|
B|---- 5---- 5-- 5-- 2-- 2---- 5--|-------------- 7------ 5--------|
G|-- 2------ 2-- 2----------------|-- 6------ 6------ 6------------|
D|---------------- 2--------------|--------------------------------|
A| 0-------------- 0------------ 6|-------------- 6----------------|
E|--------------------------------|------------------------------ 4|
http://classicalguitartablature.blogspot.com/
E|--------------------------------|--------------------------------|
B|-- 4-- 4-- 4-- 4------ 4-- 5-- 5|-- 5-- 5-- 5-- 5----------------|
G|-- 5-- 5-- 5------ 6-- 5------ 6|---------------------- 6--------|
D|-- 6-- 6-- 6------------------ 6|------------------ 6------ 6----|
A|------------------------------ 4|-------------- 4-------------- 0|
E|-------------- 4----------------|--------------------------------|
http://classicalguitartablature.blogspot.com/
E|------ 7-- 4---------- 7--------|------ 7-- 4--------------------|
B|------ 5-- 5------ 5------ 5----|------ 6-- 5---------- 7---- 7--|
G|-- 6---------- 6----------------|-------------------- 4------ 4--|
D|--------------------------------|---- 6---------- 6--------------|
A|--------------------------------|--------------------------------|
E|------------------------------ 0|--------------------------------|
http://classicalguitartablature.blogspot.com/
E|------------------------------ 4|--------------------------------|
B|---------- 7------ 5-- 5-- 7-- 5|-- 7-- 5 7------------------ 5--|
G|-------- 4-------- 4-- 4------ 4|-- 4-- 4-------- 6---- 6--------|
D|---- 4-------- 4----------------|-- 6-- 6------------ 6----------|
A|--------------------------------| 4------------------------------|
E| 7------------------------------|--------------------------------|
http://classicalguitartablature.blogspot.com/
E|------ 7-- 4------ 4-- 7--------|------ 7------ 4----------------|
B|------ 5-- 5------ 5-------- 5--|------ 5------ 5-- 5---- 7-- 7--|
G|-- 6---------- 6------------ 4--|------------ 4---- 4-------- 5--|
D|-------------------------- 6----|---- 6---------------------- 4--|
A| 0------------------------------|--------------------------------|
E|--------------------------------| 0---------------------------- 4|
http://classicalguitartablature.blogspot.com/
E|--------------------------------|--------------------------------|
B|------ 4-------------- 5---- 7--|-- 7-- 5-- 8 7-------- 5-- 5-- 2|
G|------------------ 5------ 5----|-- 5-- 5-- 5--------------------|
D|-- 4---------- 4----------------|-- 4-- 4---------------------- 2|
A|--------------------------------|------------------------------ 4|
E|--------------------------------|--------------------------------|
http://classicalguitartablature.blogspot.com/
E|------------------ 2------------|------------------ 2------------|
B|-- 5------ 5-- 5-- 2-- 2---- 4--| 5------ 5---- 5----------------|
G|-------------- 4----------------|-- 2---- 2---- 2---------- 2----|
D|------ 2-------- 2--------------| 2-- 2------ 2 2------ 2--------|
A|---------------- 4--------------|------------------------------ 2|
E|--------------------------------| 2-------------- 2--------------|
http://classicalguitartablature.blogspot.com/
E|------------------ 2---------- 0|------ 0-------- 0-- 2----------|
B|-- 5------ 5-- 5------ 2-- 4-- 0|------ 0-------- 0-- 0----------|
G|-- 2------ 2-- 2----------------|---------------------------- 1--|
D|-- 4---------- 4----------------|---- 2------ 2---------- 2------|
A|-------------- 2----------------|--------------------------------|
E|--------------------------------| 0-------------- 0--------------|
http://classicalguitartablature.blogspot.com/
E|------------------ 2---------- 5|------ 4------------------------|
B|---- 5---- 5-- 5-- 2-- 2---- 5--|-------------- 7------ 5--------|
G|-- 2------ 2-- 2----------------|-- 6------ 6------ 6------------|
D|---------------- 2--------------|--------------------------------|
A| 0-------------- 0------------ 6|-------------- 6----------------|
E|--------------------------------|------------------------------ 4|
http://classicalguitartablature.blogspot.com/
E|--------------------------------|--------------------------------|
B|-- 4-- 4-- 4-- 4------ 4-- 5-- 5|-- 5-- 5-- 5-- 5----------------|
G|-- 5-- 5-- 5------ 6-- 5------ 6|---------------------- 6--------|
D|-- 6-- 6-- 6------------------ 6|------------------ 6------ 6----|
A|------------------------------ 4|-------------- 4-------------- 4|
E|-------------- 4----------------|--------------------------------|
http://classicalguitartablature.blogspot.com/
E|------------------ 2------------|------------------ 2------------|
B|-- 5------ 5-- 5------ 2-- 4-- 5|------ 5------ 5-- 2------------|
G|-- 4----------------------------|------ 2------------------------|
D|--------------------------------| 2------------------------------|
A|---- 4 4-- 4---- 4 4-- 4-- 4----|------------------------------ 2|
E|--------------------------------| 2-- 2-- 2-- 2-- 2 2-- 2---- 2--|
http://classicalguitartablature.blogspot.com/
E|------------------ 2------------|--------------------------------|
B|---- 5------ 5-- 5---- 2-- 4----| 5------ 5---- 5-- 7------------|
G|------------ 2------------------| 4------ 4---- 4----------------|
D|--------------------------------| 6------ 6----------------------|
A|---- 2-- 2-- 2-- 2-- 2-- 2-- 2--|------------------------------ 0|
E|--------------------------------| 0-- 0-- 0-- 0-- 0-- 0-- 0-- 0--|
http://classicalguitartablature.blogspot.com/
E|------------------ 2---------- 5|------ 4------------------------|
B|---- 5---- 5-- 5-- 2-- 2-- 5-- 7|------ 7------ 7------ 5--------|
G|---- 2---- 2-------------- 2-- 6|------ 6------ 6------ 6------ 5|
D|--------------------------------|------------------------------ 6|
A|---- 0-- 0-- 0-- 0 0-- 0-- 0-- 6|-- 6-- 6-- 6-- 6-- 6-- 6---- 6--|
E|--------------------------------|--------------------------------|
http://classicalguitartablature.blogspot.com/
E|--------------------------------|--------------------------------|
B|-------------------- 5-- 4-- 5--| 4------------------------------|
G|-------- 5---- 5------ 5---- 5--|---- 6--------------------------|
D|-------- 6---- 6----------------|---- 6--------------------------|
A|--------------------------------| 4------------------------------|
E| 4-- 4-- 4 4---- 4-- 4-- 4-- 4--|--------------------------------|
http://classicalguitartablature.blogspot.com/
0 com

Love And Marriage (BASIC)

Frank Sinatra's tune fingerstyle chord melody guitar BASIC arrangement played in the key of G.

Love and Marriage-Frank Sinatra-BASIC Arrangement played in the key of G.
http://classicalguitartablature.blogspot.com/
E| 3---------- 0------ 0-- 2-- 3--| 5---------- 3------------------|
B| 5-------------- 3--------------| 5-------------------------- 3--|
G| 4-------------- 2--------------|-------- 5 4------------ 4------|
D|---------------- 4--------------|---- 5-------------- 5----------|
A| 4-------------- 5--------------|--------------------------------|
E|--------------------------------| 5-------------- 3--------------|
http://classicalguitartablature.blogspot.com/
E|--------------------------------|--------------------------------|
B|-------- 3---- 4------ 5--------|------ 3------ 4------ 5--------|
G| 0------------------------------|---- 2-------- 2----------------|
D|---- 0------ 0------ 0------ 0 4|------------ 4------ 4------ 4--|
A|---------------- 5--------------| 5------------ 0----------------|
E| 3------------------------------|--------------------------------|
http://classicalguitartablature.blogspot.com/
http://classicalguitartablature.blogspot.com/
E|--------------------------------|-------- 3------ 4------ 5------|
B|---------------------- 0---- 3--|-------- 5------ 5------ 5------|
G|-------- 0------ 0-- 2----------| 5------------------ 5------ 5--|
D|---- 0------ 4------------------|---- 5-------------- 5----------|
A|---------------- 2--------------| 3------------------------------|
E| 3------------------------------|---------------- 3--------------|
http://classicalguitartablature.blogspot.com/
E| 7------------------ 5-- 3------|-------------- 0------------ 2 3|
B| 0---------- 0-------- 3---- 3--| 4---------- 4 1------ 1--------|
G|-------- 0----------------------| 2------ 2------ 0-- 0----------|
D|---- 0--------------------------|---- 4-------- 2----------------|
A|---------------- 5--------------| 2-------------- 3--------------|
E| 3------------------------------|--------------------------------|
http://classicalguitartablature.blogspot.com/
E|------ 0------------ 0 2---- 3--|---- 5--------------------------|
B| 3------------ 3----------------|---- 5---------- 3---------- 3--|
G| 4------------ 0----------------|------------ 5-- 5------ 5------|
D|-------------- 2----------------|-------- 5---------- 4----------|
A| 5------------------------------|---------------- 5--------------|
E|---------------- 0--------------| 5------------------------------|
http://classicalguitartablature.blogspot.com/
E|--------------------------------|--------------------------------|
B|-------- 3---- 4------ 5--------|------ 3------ 4------ 5--------|
G| 0------------------------------|---- 2-------- 2----------------|
D|---- 0------ 0------ 0------ 0 4|------------ 4------ 4------ 4--|
A|---------------- 5--------------| 5------------ 0----------------|
E| 3------------------------------|--------------------------------|
http://classicalguitartablature.blogspot.com/
E|--------------------------------|-------- 3------ 4------ 5------|
B|---------------------- 0---- 3--|-------- 5------ 5------ 5------|
G|-------- 0------ 0-- 2----------| 5------------------ 5------ 5--|
D|---- 0------ 4------------------|---- 5-------------- 5----------|
A|---------------- 2--------------| 3------------------------------|
E| 3------------------------------|---------------- 3--------------|
http://classicalguitartablature.blogspot.com/
E| 7------------------ 5-- 3------|-------------- 0------------ 2--|
B| 0---------- 0-------- 3---- 3--| 4---------- 4 1------ 1--------|
G|-------- 0----------------------| 2------ 2------ 0-- 0----------|
D|---- 0--------------------------|---- 4-------- 2----------------|
A|---------------- 5--------------| 2-------------- 3--------------|
E| 3------------------------------|--------------------------------|
http://classicalguitartablature.blogspot.com/
E| 3------ 0---------- 0 2---- 3--| 5---------- 3------------------|
B| 5-------------- 3--------------| 5---------- 3-------------- 3--|
G| 4-------------- 2--------------|-------- 5-------------- 0------|
D|---------------- 4--------------|---- 5-------------- 0----------|
A| 4-------------- 5--------------|--------------------------------|
E|--------------------------------| 5-------------- 3--------------|
http://classicalguitartablature.blogspot.com/
E| 3-------------- 3--------------| 3------------------------------|
B| 4---------- 4-- 3---------- 3--|---- 6-- 4-- 3------------------|
G| 3------ 3-------------- 3------| 3-------------- 5---- 3--------|
D|---- 5-------------- 5----------|-------------------- 5------ 5--|
A| 6------------------------------| 6------------------------------|
E|---------------- 6--------------|---------------- 6--------------|
http://classicalguitartablature.blogspot.com/
E|--------------------------------|--------------------------------|
B|-------- 1----------------------|--------------------------------|
G|-------- 1---------- 3------ 1--|-------- 3-------------- 3------|
D|---- 1------ 1------ 3----------| 5------------ 5---- 5------ 5--|
A|---------------- 1--------------| 6------------------------------|
E| 1------------------------------|---------------- 6--------------|
http://classicalguitartablature.blogspot.com/
E| 3-------------- 3--------------| 3------------------------------|
B| 4---------- 4-- 3---------- 3--|---- 6-- 4-- 3------------------|
G| 3------ 3-------------- 3------| 3-------------- 5---- 3--------|
D|---- 5-------------- 5----------|-------------------- 5------ 5--|
A| 6------------------------------| 6------------------------------|
E|---------------- 6--------------|---------------- 6--------------|
http://classicalguitartablature.blogspot.com/
E|------ 3 2----------------------|--------------------------------|
B| 3-------- 3---- 5-- 5-- 3------|---- 3-- 1-- 0---------- 3------|
G| 4---------- 4------------ 4 0--| 2-------------- 2--------------|
D| 5---------------------------- 4|--------------------------------|
A| 5------------------------------| 5------------------------------|
E|--------------------------------|--------------------------------|
http://classicalguitartablature.blogspot.com/
E|--------------------------------|--------------------------------|
B|-------- 3---- 4------ 5--------|------ 3------ 4------ 5--------|
G| 0------------------------------|---- 2-------- 2----------------|
D|---- 0------ 0------ 0------ 0 4|------------ 4------ 4------ 4--|
A|---------------- 5--------------| 5------------ 0----------------|
E| 3------------------------------|--------------------------------|
http://classicalguitartablature.blogspot.com/
E|--------------------------------|-------- 3------ 4------ 5------|
B|---------------------- 0---- 3--|-------- 5------ 5------ 5------|
G|-------- 0------ 0-- 2----------| 5------------------ 5------ 5--|
D|---- 0------ 4------------------|---- 5-------------- 5----------|
A|---------------- 2--------------| 3------------------------------|
E| 3------------------------------|---------------- 3--------------|
http://classicalguitartablature.blogspot.com/
E| 7------------------ 5-- 3------|-------------- 0------------ 2--|
B| 0---------- 0-------- 3---- 3--| 4---------- 4 1------ 1--------|
G|-------- 0----------------------| 2------ 2------ 0-- 0----------|
D|---- 0--------------------------|---- 4-------- 2----------------|
A|---------------- 5--------------| 2-------------- 3--------------|
E| 3------------------------------|--------------------------------|
http://classicalguitartablature.blogspot.com/
E| 3------ 0------------------ 2--| 3------ 0------------------ 2--|
B| 5------------ 3----------------| 5------------ 3----------------|
G| 4------------ 5-------- 5------| 4------------ 5-------- 5------|
D|-------------------- 4----------|-------------------- 4----------|
A| 4-------------- 5--------------| 4-------------- 5--------------|
E|--------------------------------|--------------------------------|
http://classicalguitartablature.blogspot.com/
E| 3------ 0---------- 0 2---- 3--|---- 5------------------ 5------|
B| 5-------------- 3--------------|---- 5-------------- 8----------|
G| 4-------------- 2--------------|------------ 5------ 5----------|
D|---------------- 4--------------|------ 5------------ 5----------|
A| 4-------------- 5--------------|---------------- 5--------------|
E|------------------------------ 5|--------------------------------|
http://classicalguitartablature.blogspot.com/
E| 3------------------------------|--------------------------------|
B| 3------------------------------|--------------------------------|
G| 4------------------------------|--------------------------------|
D|--------------------------------| 4------------------------------|
A|------ 5-- 4 5-- 6------ 5------| 5------ 5 4 5-- 6------ 5------|
E| 3------------------------------|--------------------------------|
http://classicalguitartablature.blogspot.com/
E|--------------------------------|--------------------------------|
B| 3------------------------------|--------------------------------|
G| 5------------------------------|--------------------------------|
D| 4------------------------------|-------- 4---- 5----------------|
A| 5------ 5 4 5 6------ 5--------|--------------------------------|
E|--------------------------------|-------- 4---- 3----------------|
http://classicalguitartablature.blogspot.com/
0 com

Crocodile Rock (BASIC)

Elton John's tune fingerstyle chord melody guitar BASIC arrangement played in the key of G.

Crocodile Rock-Elton John-BASIC Arrangement played in the key of G.
http://classicalguitartablature.blogspot.com/
E|--------------------------------|---------------------------- 0--|
B| 0-- 0-- 1-- 0------ 0-- 1-- 0--| 0-- 0-- 1-- 0------ 0-- 3------|
G| 0-- 0-- 0-- 0------ 0-- 0-- 0--| 0-- 0-- 0-- 0------------------|
D| 0-- 0-- 0-- 0------ 0-- 0-- 0--| 0-- 0-- 0-- 0------------------|
A|--------------------------------|--------------------------------|
E| 3-------------- 3--------------| 3-------------- 3--------------|
http://classicalguitartablature.blogspot.com/
E|--------------------------------|---------------------------- 0--|
B|---- 3 3---- 0-- 0-- 3------ 0--|-------------------- 0-- 3-- 3--|
G|---- 0-- 0-- 0-- 0-- 0----------|-- 2-- 0-------------------- 2--|
D|---- 0-- 0-- 0-- 0-- 0----------|------------ 0------------------|
A|--------------------------------|--------------------------------|
E| 3-------------- 3--------------| 3-------------- 3--------------|
http://classicalguitartablature.blogspot.com/
http://classicalguitartablature.blogspot.com/
E|--------------------------------|---------------------------- 0--|
B|---- 3-- 3-- 0-- 0-- 3------ 0--|------------------ 0-- 3---- 0--|
G|---- 2-- 2-- 2-- 2-- 2----------|-- 2-- 0-------------------- 0--|
D|---- 0-- 0-- 0-- 0-- 0----------|------------ 0------------------|
A| 2-------------- 2--------------| 2------------ 2----------------|
E|--------------------------------|--------------------------------|
http://classicalguitartablature.blogspot.com/
E|--------------------------------|---------------------------- 0--|
B|---- 3------ 3------ 3------ 0--|-------------------- 0-- 3-- 3--|
G|---- 0------ 0------ 0----------|-- 2-- 0-------------------- 2--|
D|---- 2------ 2-------- 2--------|------------ 2------------------|
A| 3-------------- 3--------------| 3-------------- 3--------------|
E|--------------------------------|--------------------------------|
http://classicalguitartablature.blogspot.com/
E|---------------------------- 0--|---------------------------- 0--|
B|---- 3------ 3------ 3------ 3--|---- 3-- 0-- 3---- 0-- 3--------|
G|---- 2------ 2------ 2----------|---- 2 2---- 2------------------|
D|---- 4------ 4------------------|--------------------------------|
A| 5-------------- 5--------------| 5-------------- 5--------------|
E|--------------------------------|--------------------------------|
http://classicalguitartablature.blogspot.com/
E|--------------------------------|---------------------------- 0--|
B|---- 3-- 3-- 0-- 0-- 3------ 0--|-------------------- 0-- 3-- 3--|
G|---- 0-- 0-- 0-- 0-- 0----------|---- 2---------------------- 2--|
D|---- 0-- 0-- 0-- 0-- 0----------|------------ 0------------------|
A|--------------------------------|--------------------------------|
E| 3-------------- 3--------------| 3-------------- 3--------------|
http://classicalguitartablature.blogspot.com/
E|--------------------------------|---------------------------- 0--|
B|---- 3-- 3-- 0-- 0-- 3------ 0--|------------------ 0-- 3---- 0--|
G|---- 2-- 2-- 2-- 2-- 2----------|-- 2-- 0-------------------- 0--|
D|---- 0-- 0-- 0-- 0-- 0----------|------------ 0------------------|
A| 2-------------- 2--------------| 2------------ 2----------------|
E|--------------------------------|--------------------------------|
http://classicalguitartablature.blogspot.com/
E|--------------------------------|---------------------------- 0--|
B|---- 3------ 3------ 3------ 0--|-------------------- 0-- 3-- 3--|
G|---- 0------ 0------ 0----------|-- 2-- 0-------------------- 2--|
D|---- 2------ 2-------- 2--------|------------ 2------------------|
A| 3-------------- 3--------------| 3-------------- 3--------------|
E|--------------------------------|--------------------------------|
http://classicalguitartablature.blogspot.com/
E|---------------------------- 0--|--------------------------------|
B|------ 3------ 3---- 3------ 3--|---- 3-- 0-- 3---------- 3------|
G|-------- 2------ 2-- 2----------|---- 2-- 2-- 2------------------|
D|---- 4---- 4--------------------|-------------------- 4----------|
A| 5-------------- 5--------------| 5-------------- 5--------------|
E|--------------------------------|--------------------------------|
http://classicalguitartablature.blogspot.com/
E|------ 0------------ 0------ 0--|---------- 0---------- 0------ 0|
B|------ 0------ 3---- 0------ 0--|---- 0 3-- 0--------------------|
G|-------------- 1------------ 1--|---- 1-- 1 1--------------------|
D|---- 2-------- 2----------------|------ 2---------- 2------------|
A|--------------------------------|--------------------------------|
E| 0-------------- 0--------------| 0-------------- 0--------------|
http://classicalguitartablature.blogspot.com/
E|------------------------------ 0|--------------------------------|
B| 0------ 0----------------------|---- 0--------------------------|
G|---------------- 0------ 2-- 0--|------------ 0---- 0---- 2-- 0--|
D|---- 2------ 2------ 2----------|--------------------------------|
A| 0-------------- 0--------------| 0-------------- 0------------ 5|
E|--------------------------------|--------------------------------|
http://classicalguitartablature.blogspot.com/
E|------ 2-- 0---------- 0--------| 2-- 0---------------- 0------ 3|
B|------ 3-- 3---- 3-------- 3----| 3-- 3---- 3------ 3------ 3-- 0|
G|---------------- 2-------- 2----| 2-- 2---- 2------ 2------------|
D|---- 4------------ 4------------|--------------------------------|
A|---------------- 5--------------| 5------------ 5----------------|
E|--------------------------------|--------------------------------|
http://classicalguitartablature.blogspot.com/
E|--------------------------------|--------------------------------|
B|-------- 0------ 0-- 0------ 0--|---- 3--------------------------|
G| 0------ 0------ 0-- 0------ 0--|--------------------------------|
D|---- 0------ 0-- 0-- 0------ 0--|------------ 0------ 0----------|
A|--------------------------------|--------------------------------|
E| 3-------------- 3--------------| 3-------------- 3------ 1------|
http://classicalguitartablature.blogspot.com/
E|------ 0------------ 0------ 0--|---------- 0---------- 0------ 0|
B|------ 0------ 3---- 0------ 0--|---- 0 3-- 0--------------------|
G|-------------- 1------------ 1--|---- 1-- 1 1--------------------|
D|---- 2-------- 2----------------|------ 2---------- 2------------|
A|--------------------------------|--------------------------------|
E| 0-------------- 0--------------| 0-------------- 0--------------|
http://classicalguitartablature.blogspot.com/
E|------------------------------ 0|--------------------------------|
B| 0------ 0----------------------|---- 0--------------------------|
G|---------------- 0------ 2-- 0--|------------ 0---- 0---- 2-- 0--|
D|---- 2------ 2------ 2----------|--------------------------------|
A| 0-------------- 0--------------| 0-------------- 0------------ 5|
E|--------------------------------|--------------------------------|
http://classicalguitartablature.blogspot.com/
E|------ 2-- 0---------- 0--------| 2-- 0---------------- 0--------|
B|------ 3-- 3---- 3-------- 3----| 3-- 3---- 3------ 3------ 3----|
G|---------------- 2-------- 2----| 2-- 2---- 2------ 2---------- 2|
D|---- 4------------ 4------------|------------------------------ 3|
A|---------------- 5--------------| 5------------ 5-------------- 3|
E|--------------------------------|--------------------------------|
http://classicalguitartablature.blogspot.com/
E|--------------------------------|--------------------------------|
B|--------------------------------|--------------------------------|
G|------------ 0---------- 2------|---- 0---------- 2------ 0------|
D|------------ 2---------- 3------|---- 2---------- 3------ 2------|
A|------------ 3---------- 3------|---- 3---------- 3------ 3------|
E|--------------------------------|--------------------------------|
http://classicalguitartablature.blogspot.com/
E| 7------------------------------|-------------- 7---- 5-- 3-- 5--|
B| 0------ 0------------------ 0--|-------- 0----------------------|
G|------ 0---------------- 0------|--------------------------------|
D|---- 0-------------- 0----------|---- 0--------------------------|
A|--------------------------------|--------------------------------|
E| 3---------- 3-- 3--------------| 3-------------- 3--------------|
http://classicalguitartablature.blogspot.com/
E| 0------------------------------|---------------- 7-- 5-- 3-- 5--|
B|-------- 0------------------ 0--|-------- 0----------------------|
G|------ 0---------------- 0------|------ 0------------------------|
D|---- 2-------------- 2----------|---- 2--------------------------|
A|--------------------------------|--------------------------------|
E| 0---------- 0-- 0--------------| 0---------- 0-- 0--------------|
http://classicalguitartablature.blogspot.com/
E|--------------------------------|---------------- 8-- 7-- 5-- 7--|
B| 5------ 5------------------ 5--|------ 5-------- 5-- 5-- 5-- 5--|
G| 5---- 5---------------- 5------|------ 5------------ 5-- 5-- 5--|
D|---- 5-------------- 5----------|---- 5--------------------------|
A|--------------------------------|--------------------------------|
E| 8---------- 8-- 8--------------| 8---------- 8-- 8--------------|
http://classicalguitartablature.blogspot.com/
E| 5------------------------------|--------------------------------|
B| 7------ 7------------------ 7--|-------- 7------------------ 7--|
G|------ 7---------------- 7------|-------- 7-------------- 7------|
D|---- 7-------------- 7----------|---- 7-------------- 7----------|
A| 5---------- 5-- 5--------------| 5---------- 5-- 5--------------|
E|--------------------------------|--------------------------------|
http://classicalguitartablature.blogspot.com/
E| 7------------------------------|-------------- 7---- 5-- 3-- 5--|
B| 0------ 0------------------ 0--|-------- 0----------------------|
G|------ 0---------------- 0------|--------------------------------|
D|---- 0-------------- 0----------|---- 0--------------------------|
A|--------------------------------|--------------------------------|
E| 3---------- 3-- 3--------------| 3-------------- 3--------------|
http://classicalguitartablature.blogspot.com/
E| 0------------------------------|---------------- 7-- 5-- 3-- 5--|
B|-------- 0------------------ 0--|-------- 0----------------------|
G|------ 0---------------- 0------|------ 0------------------------|
D|---- 2-------------- 2----------|---- 2--------------------------|
A|--------------------------------|--------------------------------|
E| 0---------- 0-- 0--------------| 0---------- 0-- 0--------------|
http://classicalguitartablature.blogspot.com/
E|--------------------------------|---------------- 8-- 7-- 5-- 7--|
B| 5------ 5------------------ 5--|------ 5-------- 5-- 5-- 5-- 5--|
G| 5---- 5---------------- 5------|------ 5------------ 5-- 5-- 5--|
D|---- 5-------------- 5----------|---- 5--------------------------|
A|--------------------------------|--------------------------------|
E| 8---------- 8-- 8--------------| 8---------- 8-- 8--------------|
http://classicalguitartablature.blogspot.com/
E| 5------------------------------|--------------------------------|
B| 7------ 7------------------ 7--|-------- 7------------------ 7--|
G|------ 7---------------- 7------|-------- 7-------------- 7------|
D|---- 7-------------- 7----------|---- 7-------------- 7----------|
A| 5---------- 5-- 5--------------| 5---------- 5-- 5--------------|
E|--------------------------------|--------------------------------|
http://classicalguitartablature.blogspot.com/
E|--------------------------------|--------------------------------|
B| 0-- 0-- 1-- 0-- 0-- 0-- 1-- 0--|--------------------------------|
G| 0-- 0-- 0-- 0-- 0-- 0-- 0-- 0--|--------------------------------|
D| 0-- 0-- 0-- 0-- 0-- 0-- 0-- 0--|--------------------------------|
A|--------------------------------|--------------------------------|
E| 3-------------- 3---------- 3--|--------------------------------|
http://classicalguitartablature.blogspot.com/
0 com

Everyday (BASIC)

Buddy Holly's tune fingerstyle chord melody guitar BASIC arrangement played in the key of G.

Everyday-Buddy Holly-BASIC ARRANGEMENT played in the key of G.
http://classicalguitartablature.blogspot.com/
E|--------------------------------|--------------------------------|
B|-------- 3-------------- 3------|------ 3---------------- 3------|
G|---- 0------ 0------ 0------ 0--|---- 0------ 0------ 0------ 0--|
D|--------------------------------|--------------------------------|
A|--------------------------------|--------------------------------|
E| 3-------------- 3--------------| 3-------------- 3--------------|
http://classicalguitartablature.blogspot.com/
E|---------------------------- 0--|---- 0-- 0-- 0-- 2---- 0--------|
B| 3------ 0------------------ 1--|---- 1-- 1-- 1-- 3--------------|
G| 0---------- 2-- 0------ 0------|---- 0-- 0-- 0-- 2-------- 2----|
D| 0-- 0-------- 2---- 2----------|-------------- 4---- 4------ 4--|
A|--------------------------------| 3-------------- 5--------------|
E| 3-------------- 0--------------|--------------------------------|
http://classicalguitartablature.blogspot.com/
http://classicalguitartablature.blogspot.com/
E|--------------------------------|--------------------------------|
B| 3------ 0-------------- 0-- 1--|---- 1-- 3-- 1-- 0--------------|
G| 0---------- 2-- 0------ 0-- 0--|---- 0-- 0-- 0-- 2---- 2--------|
D|---- 0-------- 2---- 2------ 2--|---- 2-- 2---------- 4------ 4--|
A|--------------------------------| 3-------------- 5--------------|
E| 3-------------- 0--------------|--------------------------------|
http://classicalguitartablature.blogspot.com/
E|--------------------------------|--------------------------------|
B| 3------ 0------------ 0--------|---- 3------ 0------------------|
G| 0---------- 2-- 0--------------|-------- 5---------- 2----------|
D|---- 0-------- 2---- 2------ 2--|---------------- 4--------------|
A|--------------------------------| 5-------------- 5--------------|
E| 3-------------- 0--------------|--------------------------------|
http://classicalguitartablature.blogspot.com/
E|------------------------ 0------|--------------------------------|
B|---------- 0------ 1------------|---------------------- 3--------|
G| 0------ 0---------- 0----------|-- 0---- 0---------- 2------ 2--|
D|---- 0--------------------------|---------------- 4--------------|
A|---------------- 3--------------|---------------- 5--------------|
E| 3------------------------------| 3------------------------------|
http://classicalguitartablature.blogspot.com/
E|---------------------------- 0--|---- 0-- 0-- 0-- 2---- 0--------|
B| 3------ 0------------------ 1--|---- 1-- 1-- 1-- 3--------------|
G| 0---------- 2-- 0------ 0------|---- 0-- 0-- 0-- 2-------- 2----|
D| 0-- 0-------- 2---- 2----------|-------------- 4---- 4------ 4--|
A|--------------------------------| 3-------------- 5--------------|
E| 3-------------- 0--------------|--------------------------------|
http://classicalguitartablature.blogspot.com/
E|--------------------------------|--------------------------------|
B| 3------ 0-------------- 0-- 1--|---- 1-- 3-- 1-- 0--------------|
G| 0---------- 2-- 0------ 0-- 0--|---- 0-- 0-- 0-- 2---- 2--------|
D|---- 0-------- 2---- 2------ 2--|---- 2-- 2---------- 4------ 4--|
A|--------------------------------| 3-------------- 5--------------|
E| 3-------------- 0--------------|--------------------------------|
http://classicalguitartablature.blogspot.com/
E|--------------------------------|--------------------------------|
B| 3------ 0------------ 0--------|---- 3------ 0------------------|
G| 0---------- 2-- 0--------------|-------- 5---------- 2----------|
D|---- 0-------- 2---- 2------ 2--|---------------- 4--------------|
A|--------------------------------| 5-------------- 5--------------|
E| 3-------------- 0--------------|--------------------------------|
http://classicalguitartablature.blogspot.com/
E|------------------------ 0------|------------------------------ 0|
B|---------- 0------ 1------------|---------------------------- 0--|
G| 0------ 0---------- 0----------|---- 0-- 0------ 0------ 0---- 0|
D|---- 0--------------------------|---- 0-------------- 0----------|
A|---------------- 3--------------|--------------------------------|
E| 3------------------------------| 3-------------- 3--------------|
http://classicalguitartablature.blogspot.com/
E|------ 0---- 0-------------- 0--|------ 0-------- 0--------------|
B| 1---- 1---- 1-------------- 1--|-- 3-- 1---- 3 1-- 3-- 1--------|
G|------ 0---- 0---------- 0-- 0--|-- 0---- 0-- 0-- 0 0-- 0--------|
D|-- 2---------------- 2----------|-- 2-------- 2---- 2-- 2--------|
A| 3---------------------------- 3|--------------------------------|
E|---------------- 3--------------|---------------- 3--------------|
http://classicalguitartablature.blogspot.com/
E| 1---- 1---- 1-------------- 1--|---- 1-- 1-- 0-- 1-- 0----------|
B| 1---- 1---- 1---------- 1------|---- 1-- 1------ 1------ 1------|
G|---- 2-------------- 2----------|--------------------------------|
D|--------------------------------|--------------------------------|
A|---------------- 3--------------|---------------- 3--------------|
E| 1------------------------------| 1------------------------------|
http://classicalguitartablature.blogspot.com/
E|--------------------------------|---------------------- 1--------|
B|--------------------------------|-------------- 3----------------|
G| 3------ 3------ 3------ 3-- 3--|---- 3-- 3 3--------------------|
D|---- 3------ 3------ 3----------|---- 3-- 3-- 3------ 3----------|
A| 1------------------------------| 1------------------------------|
E|---------------- 1--------------|---------------- 1--------------|
http://classicalguitartablature.blogspot.com/
E|--------------------------------|--------------------------------|
B|-------------- 6----------------|---- 3--------------------------|
G|---- 8------ 8---------- 8------|---- 5------------------ 5------|
D|---- 8------ 8---------- 8------|---- 4------ 4------ 4------ 4--|
A| 6------------------------------| 5------------------------------|
E|---------------- 6--------------|---------------- 5--------------|
http://classicalguitartablature.blogspot.com/
E|---------------------------- 0--|---- 0-- 0-- 0-- 2---- 0--------|
B| 3------ 0------------------ 1--|---- 1-- 1-- 1-- 3--------------|
G| 0---------- 2-- 0------ 0------|---- 0-- 0-- 0-- 2-------- 2----|
D| 0-- 0-------- 2---- 2----------|-------------- 4---- 4------ 4--|
A|--------------------------------| 3-------------- 5--------------|
E| 3-------------- 0--------------|--------------------------------|
http://classicalguitartablature.blogspot.com/
E|--------------------------------|--------------------------------|
B| 3------ 0-------------- 0-- 1--|---- 1-- 3-- 1-- 0--------------|
G| 0---------- 2-- 0------ 0-- 0--|---- 0-- 0-- 0-- 2---- 2--------|
D|---- 0-------- 2---- 2------ 2--|---- 2-- 2---------- 4------ 4--|
A|--------------------------------| 3-------------- 5--------------|
E| 3-------------- 0--------------|--------------------------------|
http://classicalguitartablature.blogspot.com/
E|--------------------------------|--------------------------------|
B| 3------ 0------------ 0--------|---- 3------ 0------------------|
G| 0---------- 2-- 0--------------|-------- 5---------- 2----------|
D|---- 0-------- 2---- 2------ 2--|---------------- 4--------------|
A|--------------------------------| 5-------------- 5--------------|
E| 3-------------- 0--------------|--------------------------------|
http://classicalguitartablature.blogspot.com/
E|------------------------ 0------|--------------------------------|
B|---------- 0------ 1------------|---------------------- 3--------|
G| 0------ 0---------- 0----------|-- 0---- 0---------- 2------ 2--|
D|---- 0--------------------------|---------------- 4--------------|
A|---------------- 3--------------|---------------- 5--------------|
E| 3------------------------------| 3------------------------------|
http://classicalguitartablature.blogspot.com/
E|--------------------------------|--------------------------------|
B| 3------ 0------------ 0--------|---- 3------ 0------------------|
G| 0---------- 2-- 0--------------|-------- 5---------- 2----------|
D|---- 0-------- 2---- 2------ 2--|---------------- 4--------------|
A|--------------------------------| 5-------------- 5--------------|
E| 3-------------- 0--------------|--------------------------------|
http://classicalguitartablature.blogspot.com/
E|--------------------------------|--------------------------------|
B|---------------- 1------------ 0|--------------------------------|
G| 0------ 0-------------- 0------| 0------ 2------ 0--------------|
D|---- 0------ 0 2---- 2------ 2--|-------- 2------ 0--------------|
A|--------------------------------| 3------ 3----------------------|
E| 3-------------- 3--------------|---------------- 3--------------|
http://classicalguitartablature.blogspot.com/
0 com

Crying (BASIC)

Roy Orbison's tune fingerstyle chord melody guitar BASIC arrangement played in the key of E.

Crying-Roy Orbison-BASIC ARRANGEMENT played in the key of G.
http://classicalguitartablature.blogspot.com/
E|--------------------------------|--------------------------------|
B|-------- 0---------- 0---- 0----|------ 0-------------------- 0--|
G|------ 1------------ 1---- 1----|------ 1---------- 1-- 1--------|
D|---- 2-------------- 2---- 2----|-- 2------------------ 2--------|
A|--------------------------------|--------------------------------|
E| 0---------- 0-- 0------ 0---- 0|------------ 0 0------ 0--------|
http://classicalguitartablature.blogspot.com/
E|--------------------------------|--------------------------------|
B| 2------ 2------------------ 0--| 2------ 2------------------ 0--|
G| 1---- 1---------------- 1------| 1------------------ 1-- 1------|
D|---- 2-------------- 2----------|---- 2-------------- 2-- 2------|
A|--------------------------------|--------------------------------|
E| 0---------- 0-- 0------ 0------| 0---------- 0-- 0------ 0------|
http://classicalguitartablature.blogspot.com/
http://classicalguitartablature.blogspot.com/
E|--------------------------------|---------------------------- 0--|
B| 2------ 2------ 4---------- 0--|---------------------- 4--------|
G| 1---- 1------------------------| 1---- 1------------------------|
D|---- 2-------------- 2----------|---- 2-------------- 2----------|
A|--------------------------------|--------------------------------|
E| 0---------- 0-- 0------ 0------| 0---------- 0-- 0------ 0------|
http://classicalguitartablature.blogspot.com/
E| 2-- 0-- 0-- 0------------ 0----| 2-- 0-- 0-- 0-------------- 0--|
B| 0------ 0-- 0---------- 4------| 1------ 1-- 1-------- 4--------|
G| 1------------------ 1----------| 1---------- 1------ 1----------|
D|--------------------------------|--------------------------------|
A|--------------------------------|------------------------------ 0|
E| 0---------- 0-- 0------ 0------| 0---------- 0-- 0------ 0------|
http://classicalguitartablature.blogspot.com/
E| 2------------------------------|--------------------------------|
B| 2---------- 5-- 2--------------|---- 5--------------------------|
G| 2---------------------- 2------|---- 5 5------------ 6-- 6-- 6--|
D|--------------------------------| 4------------------------------|
A|--------------------------------| 0---------- 0-- 0--------------|
E|--------------------------------|--------------------------------|
http://classicalguitartablature.blogspot.com/
E|--------------------------------|--------------------------------|
B| 2-- 0-- 0-- 0------ 0-- 0-- 0 2|-- 4----------------------------|
G| 1-- 1-- 1-- 1------ 1-- 1---- 2|---------- 4---------- 4--------|
D| 2-- 2-- 2-- 2------ 2 2--------|-------- 2-------- 2------------|
A|------------------------------ 2|------------ 2 2---------- 2-- 2|
E| 0---------- 0-- 0------ 0------|--------------------------------|
http://classicalguitartablature.blogspot.com/
E|------------------------------ 0|--------------------------------|
B|-------------- 2------ 4------ 0|-- 0-- 2------ 0------------ 0--|
G|------ 4---------------------- 1|---------- 1------------ 1------|
D|-- 2------ 2------ 2------ 2----|---------- 2-------- 2----------|
A|--------------------------------|--------------------------------|
E|--------------------------------| 0---------- 0-- 0---------- 0--|
http://classicalguitartablature.blogspot.com/
E|---- 4------------------------ 0|--------------------------------|
B|------------ 4---------- 4---- 0|-- 0-- 2------ 0------------ 0--|
G| 4-------------------------- 4 1|---------- 1------------ 1------|
D| 6------ 6---------- 6----------|---------- 2-------- 2----------|
A|--------------------------------|--------------------------------|
E| 4---------- 4-- 4---------- 4--| 0---------- 0-- 0---------- 0--|
http://classicalguitartablature.blogspot.com/
E|---- 4--------------------------|--------------------------------|
B|------------ 4---------- 4------|-------- 2----------------------|
G| 4-------------------------- 4--| 2-- 2---------------- 1---- 2--|
D| 6------ 6---------- 6----------|---- 1-------------- 2----------|
A|--------------------------------| 0---------- 0-- 0--------------|
E| 4---------- 4-- 4---------- 4--|--------------------------------|
http://classicalguitartablature.blogspot.com/
E|--------------------------------|--------------------------------|
B|--------------------------------|--------------------------------|
G| 1-- 1--------------------------|--------------------------------|
D|---- 1 1------------ 1 2-- 4----| 4-- 2-------------- 2-- 2 1 2--|
A| 2-------- 2---- 2--------------| 0---------- 0-- 0--------------|
E|--------------------------------|--------------------------------|
http://classicalguitartablature.blogspot.com/
E|--------------------------------|--------------------------------|
B|---- 0--------------------------|------ 0-------------- 0--------|
G|-- 2-- 2------------------------|---- 1---------------- 1--------|
D| 1------------------ 1-- 2-- 4 4|-- 2---------------- 2-------- 4|
A| 2---------- 2-- 2--------------|--------------------------------|
E|--------------------------------| 0---------- 0-- 0-------- 0-- 0|
http://classicalguitartablature.blogspot.com/
E|--------------------------------|--------------------------------|
B|------ 1------------------------|------ 2------------------------|
G|---- 1-------------------- 1----|---- 2-------------- 2------ 2--|
D|-- 2-------------- 2------ 2-- 4|-- 2---------------- 2------ 2--|
A|--------------------------------| 0---------- 0-- 0------ 0------|
E|------------ 0-- 0------ 0------|--------------------------------|
http://classicalguitartablature.blogspot.com/
E|--------------------------------|--------------------------------|
B|---- 1--------------------------| 0------ 0----------------------|
G| 1-------- 2 1------------------|---- 1-------------- 1----------|
D| 2------ 2 2---- 4-- 2-- 2-- 2--|---- 2-------------------- 2-- 2|
A| 0-------- 0---- 0---------- 0--|--------------------------------|
E|--------------------------------| 0---------- 0-- 0------ 0------|
http://classicalguitartablature.blogspot.com/
E|--------------------------------|--------------------------------|
B|------ 0---------------------- 0|------ 0------------------------|
G|-- 1---- 1----------------------|---- 2--------------------------|
D|------------------ 2-- 2-- 2----|-- 1---------------- 2-- 2-- 2--|
A|------------------------------ 2|------------ 2-- 2------ 2------|
E| 0---------- 0-- 0 0---- 0------|--------------------------------|
http://classicalguitartablature.blogspot.com/
E|--------------------------------|--------------------------------|
B|------ 0------------------------|-------- 0----------------------|
G|---- 2-- 2----------------------|---- 1-------------- 1------ 1--|
D| 1------------------ 1-- 2-- 4--| 4 2---------------- 2------ 2--|
A| 2---------- 2-- 2------ 2------|--------------------------------|
E|--------------------------------| 0---------- 0-- 0------ 0------|
http://classicalguitartablature.blogspot.com/
E|--------------------------------|--------------------------------|
B|------ 0-------------------- 0--| 2------ 2------------------ 0--|
G|---- 1-------------- 1 1--------| 1---- 1---------------- 1------|
D|---- 2------------------ 2------|---- 2-------------- 2----------|
A|--------------------------------|--------------------------------|
E| 0---------- 0-- 0------ 0------| 0---------- 0-- 0------ 0------|
http://classicalguitartablature.blogspot.com/
E|--------------------------------|--------------------------------|
B| 2------ 2------------------ 0--| 2------ 2------ 4---------- 0--|
G| 1------------------ 1-- 1------| 1---- 1------------------------|
D|---- 2-------------- 2-- 2------|---- 2-------------- 2----------|
A|--------------------------------|--------------------------------|
E| 0---------- 0-- 0------ 0------| 0---------- 0-- 0------ 0------|
http://classicalguitartablature.blogspot.com/
E|---------------------------- 0--| 2-- 0-- 0-- 0------------ 0----|
B|---------------------- 4--------| 0------ 0-- 0---------- 4------|
G| 1---- 1------------------------| 1------------------ 1----------|
D|---- 2-------------- 2----------|--------------------------------|
A|--------------------------------|--------------------------------|
E| 0---------- 0-- 0------ 0------| 0---------- 0-- 0------ 0------|
http://classicalguitartablature.blogspot.com/
E| 2-- 0-- 0-- 0-------------- 0--| 2---------------------------- 4|
B| 1------ 1-- 1-------- 4--------| 2-------- 5-- 5---- 2---- 5----|
G| 1---------- 1------ 1----------| 2-------- 2---- 2--------------|
D|--------------------------------|---------- 2-- 2----------------|
A|--------------------------------| 0------------------------------|
E| 0---------- 0-- 0------ 0------|--------------------------------|
http://classicalguitartablature.blogspot.com/
E|---------- 5 4------------------| 7------------------------------|
B| 5-------- 5-- 7-- 5-- 5-- 5----| 5---------------------- 5------|
G| 5---- 5-- 5---- 5 5-- 5-- 5----|---- 4--------------------------|
D|-- 4-------------- 4-- 4-- 4----|-- 6---- 6---------- 6------ 6--|
A| 0-------- 0---- 0--------------|--------------------------------|
E|--------------------------------| 0---------- 0-- 0------ 0------|
http://classicalguitartablature.blogspot.com/
E|--------------------------------| 7------------------------------|
B| 5------ 5-------------- 5 5----| 4---------------------- 4------|
G|------ 4---------------- 4 4----|------ 4------------------------|
D|---- 6-------------- 6----------|-- 4---- 4---------- 4------ 4--|
A|--------------------------------|--------------------------------|
E| 0---------- 0-- 0------ 0------| 7---------- 7-- 7------ 7------|
http://classicalguitartablature.blogspot.com/
E|------------------------------12|------ 9------------------------|
B| 4----------------------------12|--12------ 9----12----12--------|
G|------ 4---------------------- 9|-- 9------ 9------ 9 9---- 9-- 4|
D|-- 4-- 4------------ 4------ 4--|---------- 9------ 9------------|
A|--------------------------------|--------------------------------|
E| 7---------- 7 7------ 7--------| 0---------- 0-- 0-------- 0----|
http://classicalguitartablature.blogspot.com/
E|-- 4--------------------------12|------ 9------------------------|
B| 4-------- 4---------- 4------12|--12------ 9----12----12--------|
G|-------------------- 4-------- 9|-- 9------ 9------ 9 9---- 9-- 4|
D| 4---- 4------------ 4----------|---------- 9------ 9------------|
A|--------------------------------|--------------------------------|
E| 4---------- 4-- 4---------- 4--| 0---------- 0-- 0-------- 0----|
http://classicalguitartablature.blogspot.com/
E|-- 4----------------------------|---------------------------- 4--|
B| 4-------- 4---------- 4--------| 5---- 5------------ 5----------|
G|-------------------- 4----------|---- 2-------------- 2----------|
D| 4---- 4------------ 4----------|---- 2------------------ 2------|
A|--------------------------------| 0---------- 0-- 0--------------|
E| 4---------- 4-- 4---------- 4--|--------------------------------|
http://classicalguitartablature.blogspot.com/
E|--------------------------------|--------------------------------|
B| 4------ 4---------- 2----------| 5------ 5---------- 5---- 4 5--|
G| 3---- 2------------ 2------ 2--| 2---- 2------------ 2----------|
D|---- 4------------------ 4------|---- 2-------------- 2----------|
A| 2---------- 2-- 2--------------| 0---------- 0-- 0--------------|
E|--------------------------------|--------------------------------|
http://classicalguitartablature.blogspot.com/
E|---------------------------- 2--| 2-- 0------------------------ 2|
B| 4---- 4------------ 5----------| 0---------------------------- 1|
G|---- 2-------------- 2----------| 1------ 1---------------- 1-- 1|
D|---- 4-------------- 4----------|------ 2---------- 2------ 2----|
A| 2---------- 2-- 2--------------|--------------------------------|
E|--------------------------------| 0---------- 0 0-------- 0------|
http://classicalguitartablature.blogspot.com/
E|-- 0-------------------------- 2|--------------------------------|
B|------------------ 1------ 1-- 5|-- 5----------------------------|
G|------ 1---------- 1---------- 2|-- 2-- 2------------ 2------ 2--|
D|------ 2---------- 2------ 2----|------ 2------------ 2------ 2--|
A|------------------------------ 0|---------- 0---- 0------ 0------|
E| 0-------- 0-- 0------ 0--------|--------------------------------|
http://classicalguitartablature.blogspot.com/
E| 4-------- 5 4------------------| 4------------------------------|
B| 5------ 5 5-- 7---------- 5----| 5------------------------------|
G|---- 5-------- 5-------- 5------| 4-------------- 4--------------|
D|---- 4-------------- 4----------|---------------- 6--------------|
A| 0-------- 0---- 0---------- 0--|--------------------------------|
E|--------------------------------| 0------ 0-- 0-- 0------ 0-- 0--|
http://classicalguitartablature.blogspot.com/
E|--------------------------------| 7------------------------------|
B| 5------------------------------| 5------------------------------|
G| 4-------------- 4--------------| 4-------------- 4--------------|
D| 6-------------- 6--------------|---------------- 6--------------|
A|--------------------------------|--------------------------------|
E| 0------ 0-- 0-- 0------ 0-- 0--| 0------ 0-- 0-- 0------ 0-- 0--|
http://classicalguitartablature.blogspot.com/
E|--------------------------------| 5-------------------- 4---- 5--|
B| 5------------------------------| 2-------------- 2---- 2--------|
G| 6-------------- 6--------------| 2-------------- 2---- 2---- 2--|
D| 6-------------- 6--------------|---------------- 2--------------|
A| 4---- 4---- 4-- 4---- 4-- 4----| 0------ 0-- 0-- 0---- 0---- 0--|
E|--------------------------------|--------------------------------|
http://classicalguitartablature.blogspot.com/
E| 7-------------------- 7-- 6----| 7------------------------------|
B| 4-------------- 4---- 4-- 4----| 5-------------- 4--------------|
G| 4-------------- 4---- 4--------| 4-------------- 4--------------|
D|---------------- 4--------------|---------------- 4--------------|
A|--------------------------------|--------------------------------|
E| 7------ 7 7---- 7---- 7-- 7----| 0------ 0-- 0-- 7------ 7-- 7--|
http://classicalguitartablature.blogspot.com/
E| 7------------------------------| 0------------------------------|
B| 5-------------- 5--------------| 0-------------- 0--------------|
G| 4-------------- 6--------------| 1-------------- 1--------------|
D|---------------- 7--------------|---------------- 2--------------|
A|---------------- 0------ 0-- 0--|--------------------------------|
E| 0------ 0-- 0------------------| 0------ 0-- 0-- 0------ 0-- 0 0|
http://classicalguitartablature.blogspot.com/
E|--------------------------------|--------------------------------|
B|-- 0----------------------------|--------------------------------|
G|--------------------------------|--------------------------------|
D| 2------------------------------|--------------------------------|
A|--------------------------------|--------------------------------|
E|--------------------------------|--------------------------------|
http://classicalguitartablature.blogspot.com/