To celebrate the anniversary, I am giving you (finally...) : iPhone LickByNeck !!!!!!

America The Beautiful (BASIC)

Elvis Presley's tune fingerstyle chord melody guitar BASIC arrangement played in the key of G.

America The Beautiful-Elvis Presley-BASIC ARRANGEMENT played in the key of G.
http://classicalguitartablature.blogspot.com/
E|--------------------------------|--------------------------------|
B| 3---------- 3-- 2------ 1------| 0---------- 0---------- 3------|
G| 0------ 0------ 3------ 0------| 0------ 0----------------------|
D|---- 0-------------- 2------ 2--|---- 0---------- 0--------------|
A|--------------------------------|--------------------------------|
E| 3-------------- 3------ 3------| 3------------------------------|
http://classicalguitartablature.blogspot.com/
E|--------------------------------|--------------------------------|
B| 3---------- 0-- 0------ 3------| 3------ 3---------------- 0-- 1|
G|-------- 0------ 0--------------| 2---------- 2-- 2------ 2------|
D|---- 0-------------- 0------ 0 4|---- 4-------------- 4----------|
A|--------------------------------| 5------------------------------|
E| 3------------------------------|--------------------------------|
http://classicalguitartablature.blogspot.com/
http://classicalguitartablature.blogspot.com/
E|---------------- 0---- 2--------|--------------------------------|
B|------ 3------ 3------ 3--------| 3-------- 3---------- 3--------|
G| 0---- 0------------------------|-------- 0------------ 2--------|
D|-- 2-------- 2------ 4------ 4--|---- 0-------------- 4---- 4----|
A| 0-------------- 5--------------|---------------- 5--------------|
E|--------------------------------| 3------------------------------|
http://classicalguitartablature.blogspot.com/
E|--------------------------------|---------------------------- 5--|
B| 3---------- 0-- 0------ 3------| 3------ 3----------------------|
G|-------- 0-- 0-- 0--------------|------------ 2 2-------- 2------|
D|---- 0-------------- 0------ 0--|---- 4-------------- 4----------|
A|--------------------------------| 5------------------------------|
E| 3------------------------------|--------------------------------|
http://classicalguitartablature.blogspot.com/
E| 4-------- 5-- 7----------------| 5------------------------------|
B| 5-------- 8--10----------------| 7---------- 8---------- 3------|
G|---- 6---- 7-- 9------------ 9--| 5---------- 5-- 2------ 2------|
D|-------------------- 7------ 7--|---- 7------ 5------ 0------ 0--|
A|--------------------------------| 5------------------------------|
E| 5---- 7-------- 8---- 9--------|-------- 0------ 1------ 2------|
http://classicalguitartablature.blogspot.com/
E| 7---------- 7-- 5------ 3------|--------------------------------|
B| 3------ 3------ 3--------------| 8------ 8-- 7-- 7------ 7-- 8--|
G| 4-- 4-------------- 4----------| 5-------------- 5------ 5------|
D|---------------------------- 5--| 7-- 7-------------- 7----------|
A|--------------------------------| 5-------------- 5--------------|
E| 3-------------- 3--------------|--------------------------------|
http://classicalguitartablature.blogspot.com/
E| 5------------ 0----------------| 3------------------------ 3----|
B| 7---- 7------ 1-------- 3------| 3---------- 3---------- 3------|
G|------ 5---------------- 2------|-------- 0----------------------|
D|-- 7-------- 7------ 2 0---- 0--|---- 0-------------- 3------ 3--|
A| 5------------------------------|---------------- 2--------------|
E|-------------- 0-------- 2------| 3------------------------------|
http://classicalguitartablature.blogspot.com/
E| 3---------- 0-- 0------ 3------| 3------------------------------|
B| 1-------------- 1--------------| 3-------- 3---- 3---- 3--------|
G|-------- 0---------------- 0----|------ 0-------- 0------ 0------|
D|---- 2-------------- 2----------|---- 0------------ 0-------- 0--|
A| 3-------------- 3--------------|--------------------------------|
E|--------------------------------| 3-------------- 3--------------|
http://classicalguitartablature.blogspot.com/
E|---------------------- 5--------| 3------------------------------|
B| 5---- 8-------------- 7--------| 3---------- 3---------- 3------|
G| 5---- 5-------- 7--------------|-------- 0-------------- 0------|
D|---- 5---- 5-------- 7------ 7--|---- 0-------------- 4------ 4--|
A|---------------- 5--------------|---------------- 5--------------|
E| 5------------------------------| 3------------------------------|
http://classicalguitartablature.blogspot.com/
E|--------------------------------|--------------------------------|
B| 3---------- 0-- 0------ 3------| 3------ 3---------------- 0----|
G|-------- 0------ 0--------------| 2---------- 2-- 2------ 2------|
D|---- 0-------------- 0------ 0 4|---- 4-------------- 4----------|
A|--------------------------------| 5------------------------------|
E| 3------------------------------|--------------------------------|
http://classicalguitartablature.blogspot.com/
E|------------------------ 2------|--------------------------------|
B| 1------ 3------ 5------ 3------| 3-------------------- 3--------|
G| 2------ 5------ 5------ 2------| 0---------- 0-- 2---- 2--------|
D|---- 2------ 3------ 5 4---- 4--|---- 0------ 2------ 0------ 0--|
A| 0------------------------------|--------------------------------|
E|-------- 4------ 3------ 2------| 3------ 0------ 1---- 2--------|
http://classicalguitartablature.blogspot.com/
E|--------------------------------|---------------------------- 5--|
B| 3---------- 0-- 0------ 3------| 3------ 3----------------------|
G|-------- 0-- 0-- 0--------------|------------ 2 2-------- 2------|
D|---- 0-------------- 0------ 0--|---- 4-------------- 4----------|
A|--------------------------------| 5------------------------------|
E| 3------------------------------|--------------------------------|
http://classicalguitartablature.blogspot.com/
E| 4-------- 5-- 7----------------| 5------------------------------|
B| 5-------- 8--10----------------| 7---------- 8---------- 3------|
G|---- 6---- 7-- 9------------ 9--| 5---------- 5-- 2------ 2------|
D|-------------------- 7------ 7--|---- 7------ 5------ 0------ 0--|
A|--------------------------------| 5------------------------------|
E| 5---- 7-------- 8---- 9--------|-------- 0------ 1------ 2------|
http://classicalguitartablature.blogspot.com/
E| 7-------- 7---- 5---- 5--------|--------------------------------|
B| 3-------------- 8------ 8-- 8 8|------------ 8-- 7---- 7-- 8----|
G|-------- 4------ 7---------- 7--|------ 5-------- 7---- 7-- 7----|
D|---- 5-------------- 5----------|---- 7-------- 7---- 7----------|
A|--------------------------------| 5------------------------------|
E| 3-------------- 7--------------|---------------- 8--------------|
http://classicalguitartablature.blogspot.com/
E|--------------------------------| 3------------------------ 3----|
B|10------ 7------ 5---- 3--------| 3---------- 3---------- 3------|
G| 7------ 7------ 5------ 5------|-------- 0----------------------|
D|---- 7------ 6------ 5---- 4----|---- 0-------------- 3------ 3--|
A|--------------------------------|---------------- 2--------------|
E| 7------ 6------ 5------ 4------| 3------------------------------|
http://classicalguitartablature.blogspot.com/
E| 3---------------------- 3------| 3------------------------------|
B| 5---------- 5-- 5--------------| 3---------- 3-- 3---------- 3--|
G| 4------ 4------ 4--------------| 4---- 4-------- 3---- 3--------|
D|---- 5-------------- 5------ 5--|---- 5-------------- 5----------|
A| 3-------------- 4--------------| 5-------------- 6--------------|
E|--------------------------------|--------------------------------|
http://classicalguitartablature.blogspot.com/
E|---------------------- 5--------| 3------------------------------|
B| 5------ 8------ 3------ 6------| 0---------- 0-------------- 0--|
G| 5------ 7------ 3------ 5------|-------- 0-------------- 0------|
D|---- 7------ 8------ 5------ 4--|---- 0-------------- 0----------|
A| 8-------------- 6--------------|--------------------------------|
E|-------- 6-------------- 4------| 3-------------- 1--------------|
http://classicalguitartablature.blogspot.com/
E|---------------- 3---------- 3--|------------------------ 8------|
B|------------ 4------------------|10----------10----------10------|
G|-------- 3-------------- 3-- 3--|10----10------------------------|
D|---- 5-------------- 5----------|----10--------------10------10--|
A| 6-------------- 6--------------| 8-------------- 8------------10|
E|--------------------------------|--------------------------------|
http://classicalguitartablature.blogspot.com/
E|10------------------------------|--------------------------------|
B| 8------------------------------|--------------------------------|
G| 7------------------------------|--------------------------------|
D|--------------------------------|--------------------------------|
A|--------------------------------|--------------------------------|
E|--------------------------------|--------------------------------|
http://classicalguitartablature.blogspot.com/

0 ความคิดเห็น:

แสดงความคิดเห็น