To celebrate the anniversary, I am giving you (finally...) : iPhone LickByNeck !!!!!!

California King Bed (BASIC)

Rihanna's tune fingerstyle chord melody guitar BASIC arrangement played in the key of G.

California King Bed-Rihanna-BASIC ARRANGEMENT played in the key of G.
http://classicalguitartablature.blogspot.com/
E|--------------------------------|--------------------------------|
B|-------- 3-------- 3------------|------ 3---------- 3------------|
G|---- 0-------- 0----------------|-- 0------------ 0---- 0--------|
D|--------------------------------|--------------------------------|
A| 2-------- 3------------------ 2|---------- 3------------------ 2|
E|--------------------------------|--------------------------------|
http://classicalguitartablature.blogspot.com/
E|------------------ 0------------|------------------ 0------------|
B|------ 3-------------- 3--------|------ 3-------------- 3--------|
G|-- 0---------- 0---------- 0----|-------------- 2---------- 2----|
D|--------------------------------|-- 0----------------------------|
A|---------- 3--------------------|--------------------------------|
E|------------------------------ 3|---------- 2--------------------|
http://classicalguitartablature.blogspot.com/
http://classicalguitartablature.blogspot.com/
E|--------------------------------|--------------------------------|
B|------------ 0------------------|------------ 0------------------|
G|---- 2---- 0--------------------|---- 2---- 0--------------------|
D|--------------------------------|--------------------------------|
A| 2---------- 3------------------| 2---------- 3------------------|
E|--------------------------------|--------------------------------|
http://classicalguitartablature.blogspot.com/
E|--------------------------------|--------------------------------|
B|------------ 0------------------|---------- 0--------------------|
G|---- 2---- 0-------------- 2 0--| 2 0-- 2------ 2----------------|
D|------------------------------ 0|---------- 0--------------------|
A| 2---------- 3------------------|--------------------------------|
E|------------------------------ 3|------------ 2------------------|
http://classicalguitartablature.blogspot.com/
E|--------------------------------|--------------------------------|
B|------------ 0------------------|------------ 0------------------|
G|---- 2---- 0--------------------|---- 2---- 0--------------------|
D|--------------------------------|--------------------------------|
A| 2---------- 3------------------| 2---------- 3------------------|
E|--------------------------------|--------------------------------|
http://classicalguitartablature.blogspot.com/
E|--------------------------------|--------------------------------|
B|---------- 0--------------------|-------- 0----------------------|
G|---- 2-- 0---------- 2---- 0-- 2|-- 0-- 2-- 2---------------- 0 0|
D|------------------------------ 0|---------- 0--------------------|
A| 2---------- 3------------------|--------------------------------|
E|------------------------------ 3|------------ 2---------------- 0|
http://classicalguitartablature.blogspot.com/
E|-------------------------- 0----|--------------------------------|
B|---------------------- 0--------|---- 3--------------------------|
G|-- 2 4 0-- 2 4 0-- 2------------|---------------------------- 0 0|
D| 2---------- 2------------------| 2---------- 2------------------|
A|------------ 3------------------|------------ 3------------------|
E|------------------------------ 0|------------------------------ 0|
http://classicalguitartablature.blogspot.com/
E|-------------- 0-- 3-- 3---- 7--|-- 5---------------------- 5----|
B|------ 0-- 3--------------------|---------------------- 8--------|
G|-- 2----------------------------| 7---------- 7------------------|
D| 2---------- 2------------------| 5---------- 7------------------|
A|------------ 3------------------|------------ 5------------------|
E|--------------------------------| 7------------------------------|
http://classicalguitartablature.blogspot.com/
E| 7---- 3------------------ 7----|------------------------------ 7|
B| 3------------ 3------------ 7--|--10---------- 8------10------ 0|
G| 4-- 4-------- 4-------- 4-- 7--|-- 7---------- 7------ 7--------|
D|-- 5---------------- 5----------|------ 7------ 7-- 7------------|
A|--------------------------------| 9-------- 9--------------------|
E| 3-------- 3--------------------|------------------------------ 0|
http://classicalguitartablature.blogspot.com/
E|------ 5------ 3------ 2-- 3----|-------------- 3------ 5--------|
B|---- 0-------- 0---------- 5----|------ 5------ 5----------------|
G|-- 0-------------- 0-------- 5--|---- 5-------- 5----------------|
D|--------------------------------|-- 5-------------- 5------------|
A|--------------------------------| 3-------- 3--------------------|
E|---------- 0--------------------|--------------------------------|
http://classicalguitartablature.blogspot.com/
E| 7---- 3-------------------- 7--|-------------------------- 3----|
B| 3------------ 3------------ 7--|--10------ 8------ 7------ 3----|
G| 4-- 4-------- 4-------- 4-- 7--|---- 7---- 7------ 7------------|
D|-- 5---------------- 5----------|------ 7------ 7----------------|
A|--------------------------------| 9-------- 9--------------------|
E| 3-------- 3--------------------|------------------------------ 0|
http://classicalguitartablature.blogspot.com/
E|------ 5-- 3---------- 7-- 5----|-------------- 8 7-- 5------ 3--|
B|-- 3------ 3-------------- 5----|------ 5-------- 5-- 5-- 8-- 3--|
G|------------------ 0------ 5----|---------- 7---------------- 0--|
D|--------------------------------|-- 5------ 5--------------------|
A|--------------------------------|--------------------------------|
E|---------- 0--------------------| 8-------- 8------------------ 3|
http://classicalguitartablature.blogspot.com/
E|--------------------------------|--------------------------------|
B|------------ 3------------ 3----|---------- 0-------------- 0----|
G|------ 0-------------- 0------ 0| 2 4-- 0------ 0 2 4-- 0--------|
D|---- 0------------ 0---------- 0|------ 0------ 0-------- 0------|
A|--------------------------------|--------------------------------|
E|------------------------------ 3|---- 3 3---- 3 3---- 3-- 3-- 3--|
http://classicalguitartablature.blogspot.com/
E|--------------------------------|------ 0------ 0------ 0--------|
B|-------------------------- 1----|-- 3------ 3 0---- 3------ 3-- 0|
G| 0 0 2-- 4---- 0 2 4-- 4--------|--------------------------------|
D| 0---- 0------ 0------ 0------ 0|------------ 2------------------|
A|------------------------------ 2|-- 2---- 2-- 3-- 3-- 3-- 3-- 3--|
E| 2-- 2-- 2-- 2 2---- 2 2---- 2--|--------------------------------|
http://classicalguitartablature.blogspot.com/
E|---- 0---- 0-- 3-- 0-- 5---- 3 3|-- 5 7 3 5 7-- 3------ 7-- 5----|
B|-- 3-- 3------------ 3----------|-- 3 3 3------ 3-- 3------ 3----|
G|------------------------------ 5|-- 5 5 5 5 5-- 5---------- 5----|
D| 2---------- 4------------------|--------------------------------|
A|------------ 5-- 5-- 5 5---- 5--| 3-- 3-- 3-- 3-- 3-- 3 3---- 3--|
E| 0-- 0-- 0----------------------|--------------------------------|
http://classicalguitartablature.blogspot.com/
E|---- 3 3 5 3 5 7-- 3-- 7------ 7|------ 8-------- 7------------ 8|
B|---- 5 5 5-- 5-------- 5------ 7|-------- 7------ 8--10 8------ 5|
G|---- 5 5 5 5 5-- 5 5-- 5------ 7|------------ 7------------------|
D|------------------------------ 7|------------ 9------------------|
A| 3-- 3-- 3-- 3 3-- 3-- 3---- 3--| 9-- 9-- 9--10--10--1010----10--|
E|--------------------------------|--------------------------------|
http://classicalguitartablature.blogspot.com/
E|------ 7-------- 5---------- 7--|---- 8------------ 7-- 7-- 7-- 5|
B|------ 5-------- 8------ 8-- 5--|---- 5------------ 5-- 5-- 5-- 5|
G| 5---------- 7-------------- 5--|---- 5------------ 5-- 5-- 5-- 5|
D| 5---------- 5------------------|--------------------------------|
A|--------------------------------|--------------------------------|
E| 5-- 5-- 5-- 7-- 7-- 7 7-- 7-- 8|---- 8-- 8-- 8-- 8-- 8-- 8-- 8--|
http://classicalguitartablature.blogspot.com/
E|-------------------------- 5----| 7---- 3------------------ 7----|
B|---------------------- 8--------| 3------------ 3------------ 7--|
G|--------------------------------| 4-- 4-------- 4-------- 4-- 7--|
D|--------------------------------|-- 5---------------- 5----------|
A|--------------------------------|--------------------------------|
E| 8 8-- 8-- 8-- 8----------------| 3-------- 3--------------------|
http://classicalguitartablature.blogspot.com/
E|------------------------------ 7|------ 5------ 3------ 2-- 3----|
B|--10---------- 8------10------ 0|---- 0-------- 0---------- 5----|
G|-- 7---------- 7------ 7--------|-- 0-------------- 0-------- 5--|
D|------ 7------ 7-- 7------------|--------------------------------|
A| 9-------- 9--------------------|--------------------------------|
E|------------------------------ 0|---------- 0--------------------|
http://classicalguitartablature.blogspot.com/
E|-------------- 3------ 5--------| 7---- 3-------------------- 7--|
B|------ 5------ 5----------------| 3------------ 3------------ 7--|
G|---- 5-------- 5----------------| 4-- 4-------- 4-------- 4-- 7--|
D|-- 5-------------- 5------------|-- 5---------------- 5----------|
A| 3-------- 3--------------------|--------------------------------|
E|--------------------------------| 3-------- 3--------------------|
http://classicalguitartablature.blogspot.com/
E|-------------------------- 3----|------ 5-- 3---------- 7-- 5----|
B|--10------ 8------ 7------ 3----|-- 3------ 3-------------- 5----|
G|---- 7---- 7------ 7------------|------------------ 0------ 5----|
D|------ 7------ 7----------------|--------------------------------|
A| 9-------- 9--------------------|--------------------------------|
E|------------------------------ 0|---------- 0--------------------|
http://classicalguitartablature.blogspot.com/
E|-------------- 8 7-- 5---- 3----|--------------------------------|
B|------ 5-------- 5-- 5-- 8 3----|--------------------------------|
G|---------- 7-------------- 0----|--------------------------------|
D|-- 5------ 5--------------------|--------------------------------|
A|--------------------------------|--------------------------------|
E| 8-------- 8--------------------| 3------------------------------|
http://classicalguitartablature.blogspot.com/

0 ความคิดเห็น:

แสดงความคิดเห็น