To celebrate the anniversary, I am giving you (finally...) : iPhone LickByNeck !!!!!!

Crying (BASIC)

Roy Orbison's tune fingerstyle chord melody guitar BASIC arrangement played in the key of E.

Crying-Roy Orbison-BASIC ARRANGEMENT played in the key of G.
http://classicalguitartablature.blogspot.com/
E|--------------------------------|--------------------------------|
B|-------- 0---------- 0---- 0----|------ 0-------------------- 0--|
G|------ 1------------ 1---- 1----|------ 1---------- 1-- 1--------|
D|---- 2-------------- 2---- 2----|-- 2------------------ 2--------|
A|--------------------------------|--------------------------------|
E| 0---------- 0-- 0------ 0---- 0|------------ 0 0------ 0--------|
http://classicalguitartablature.blogspot.com/
E|--------------------------------|--------------------------------|
B| 2------ 2------------------ 0--| 2------ 2------------------ 0--|
G| 1---- 1---------------- 1------| 1------------------ 1-- 1------|
D|---- 2-------------- 2----------|---- 2-------------- 2-- 2------|
A|--------------------------------|--------------------------------|
E| 0---------- 0-- 0------ 0------| 0---------- 0-- 0------ 0------|
http://classicalguitartablature.blogspot.com/
http://classicalguitartablature.blogspot.com/
E|--------------------------------|---------------------------- 0--|
B| 2------ 2------ 4---------- 0--|---------------------- 4--------|
G| 1---- 1------------------------| 1---- 1------------------------|
D|---- 2-------------- 2----------|---- 2-------------- 2----------|
A|--------------------------------|--------------------------------|
E| 0---------- 0-- 0------ 0------| 0---------- 0-- 0------ 0------|
http://classicalguitartablature.blogspot.com/
E| 2-- 0-- 0-- 0------------ 0----| 2-- 0-- 0-- 0-------------- 0--|
B| 0------ 0-- 0---------- 4------| 1------ 1-- 1-------- 4--------|
G| 1------------------ 1----------| 1---------- 1------ 1----------|
D|--------------------------------|--------------------------------|
A|--------------------------------|------------------------------ 0|
E| 0---------- 0-- 0------ 0------| 0---------- 0-- 0------ 0------|
http://classicalguitartablature.blogspot.com/
E| 2------------------------------|--------------------------------|
B| 2---------- 5-- 2--------------|---- 5--------------------------|
G| 2---------------------- 2------|---- 5 5------------ 6-- 6-- 6--|
D|--------------------------------| 4------------------------------|
A|--------------------------------| 0---------- 0-- 0--------------|
E|--------------------------------|--------------------------------|
http://classicalguitartablature.blogspot.com/
E|--------------------------------|--------------------------------|
B| 2-- 0-- 0-- 0------ 0-- 0-- 0 2|-- 4----------------------------|
G| 1-- 1-- 1-- 1------ 1-- 1---- 2|---------- 4---------- 4--------|
D| 2-- 2-- 2-- 2------ 2 2--------|-------- 2-------- 2------------|
A|------------------------------ 2|------------ 2 2---------- 2-- 2|
E| 0---------- 0-- 0------ 0------|--------------------------------|
http://classicalguitartablature.blogspot.com/
E|------------------------------ 0|--------------------------------|
B|-------------- 2------ 4------ 0|-- 0-- 2------ 0------------ 0--|
G|------ 4---------------------- 1|---------- 1------------ 1------|
D|-- 2------ 2------ 2------ 2----|---------- 2-------- 2----------|
A|--------------------------------|--------------------------------|
E|--------------------------------| 0---------- 0-- 0---------- 0--|
http://classicalguitartablature.blogspot.com/
E|---- 4------------------------ 0|--------------------------------|
B|------------ 4---------- 4---- 0|-- 0-- 2------ 0------------ 0--|
G| 4-------------------------- 4 1|---------- 1------------ 1------|
D| 6------ 6---------- 6----------|---------- 2-------- 2----------|
A|--------------------------------|--------------------------------|
E| 4---------- 4-- 4---------- 4--| 0---------- 0-- 0---------- 0--|
http://classicalguitartablature.blogspot.com/
E|---- 4--------------------------|--------------------------------|
B|------------ 4---------- 4------|-------- 2----------------------|
G| 4-------------------------- 4--| 2-- 2---------------- 1---- 2--|
D| 6------ 6---------- 6----------|---- 1-------------- 2----------|
A|--------------------------------| 0---------- 0-- 0--------------|
E| 4---------- 4-- 4---------- 4--|--------------------------------|
http://classicalguitartablature.blogspot.com/
E|--------------------------------|--------------------------------|
B|--------------------------------|--------------------------------|
G| 1-- 1--------------------------|--------------------------------|
D|---- 1 1------------ 1 2-- 4----| 4-- 2-------------- 2-- 2 1 2--|
A| 2-------- 2---- 2--------------| 0---------- 0-- 0--------------|
E|--------------------------------|--------------------------------|
http://classicalguitartablature.blogspot.com/
E|--------------------------------|--------------------------------|
B|---- 0--------------------------|------ 0-------------- 0--------|
G|-- 2-- 2------------------------|---- 1---------------- 1--------|
D| 1------------------ 1-- 2-- 4 4|-- 2---------------- 2-------- 4|
A| 2---------- 2-- 2--------------|--------------------------------|
E|--------------------------------| 0---------- 0-- 0-------- 0-- 0|
http://classicalguitartablature.blogspot.com/
E|--------------------------------|--------------------------------|
B|------ 1------------------------|------ 2------------------------|
G|---- 1-------------------- 1----|---- 2-------------- 2------ 2--|
D|-- 2-------------- 2------ 2-- 4|-- 2---------------- 2------ 2--|
A|--------------------------------| 0---------- 0-- 0------ 0------|
E|------------ 0-- 0------ 0------|--------------------------------|
http://classicalguitartablature.blogspot.com/
E|--------------------------------|--------------------------------|
B|---- 1--------------------------| 0------ 0----------------------|
G| 1-------- 2 1------------------|---- 1-------------- 1----------|
D| 2------ 2 2---- 4-- 2-- 2-- 2--|---- 2-------------------- 2-- 2|
A| 0-------- 0---- 0---------- 0--|--------------------------------|
E|--------------------------------| 0---------- 0-- 0------ 0------|
http://classicalguitartablature.blogspot.com/
E|--------------------------------|--------------------------------|
B|------ 0---------------------- 0|------ 0------------------------|
G|-- 1---- 1----------------------|---- 2--------------------------|
D|------------------ 2-- 2-- 2----|-- 1---------------- 2-- 2-- 2--|
A|------------------------------ 2|------------ 2-- 2------ 2------|
E| 0---------- 0-- 0 0---- 0------|--------------------------------|
http://classicalguitartablature.blogspot.com/
E|--------------------------------|--------------------------------|
B|------ 0------------------------|-------- 0----------------------|
G|---- 2-- 2----------------------|---- 1-------------- 1------ 1--|
D| 1------------------ 1-- 2-- 4--| 4 2---------------- 2------ 2--|
A| 2---------- 2-- 2------ 2------|--------------------------------|
E|--------------------------------| 0---------- 0-- 0------ 0------|
http://classicalguitartablature.blogspot.com/
E|--------------------------------|--------------------------------|
B|------ 0-------------------- 0--| 2------ 2------------------ 0--|
G|---- 1-------------- 1 1--------| 1---- 1---------------- 1------|
D|---- 2------------------ 2------|---- 2-------------- 2----------|
A|--------------------------------|--------------------------------|
E| 0---------- 0-- 0------ 0------| 0---------- 0-- 0------ 0------|
http://classicalguitartablature.blogspot.com/
E|--------------------------------|--------------------------------|
B| 2------ 2------------------ 0--| 2------ 2------ 4---------- 0--|
G| 1------------------ 1-- 1------| 1---- 1------------------------|
D|---- 2-------------- 2-- 2------|---- 2-------------- 2----------|
A|--------------------------------|--------------------------------|
E| 0---------- 0-- 0------ 0------| 0---------- 0-- 0------ 0------|
http://classicalguitartablature.blogspot.com/
E|---------------------------- 0--| 2-- 0-- 0-- 0------------ 0----|
B|---------------------- 4--------| 0------ 0-- 0---------- 4------|
G| 1---- 1------------------------| 1------------------ 1----------|
D|---- 2-------------- 2----------|--------------------------------|
A|--------------------------------|--------------------------------|
E| 0---------- 0-- 0------ 0------| 0---------- 0-- 0------ 0------|
http://classicalguitartablature.blogspot.com/
E| 2-- 0-- 0-- 0-------------- 0--| 2---------------------------- 4|
B| 1------ 1-- 1-------- 4--------| 2-------- 5-- 5---- 2---- 5----|
G| 1---------- 1------ 1----------| 2-------- 2---- 2--------------|
D|--------------------------------|---------- 2-- 2----------------|
A|--------------------------------| 0------------------------------|
E| 0---------- 0-- 0------ 0------|--------------------------------|
http://classicalguitartablature.blogspot.com/
E|---------- 5 4------------------| 7------------------------------|
B| 5-------- 5-- 7-- 5-- 5-- 5----| 5---------------------- 5------|
G| 5---- 5-- 5---- 5 5-- 5-- 5----|---- 4--------------------------|
D|-- 4-------------- 4-- 4-- 4----|-- 6---- 6---------- 6------ 6--|
A| 0-------- 0---- 0--------------|--------------------------------|
E|--------------------------------| 0---------- 0-- 0------ 0------|
http://classicalguitartablature.blogspot.com/
E|--------------------------------| 7------------------------------|
B| 5------ 5-------------- 5 5----| 4---------------------- 4------|
G|------ 4---------------- 4 4----|------ 4------------------------|
D|---- 6-------------- 6----------|-- 4---- 4---------- 4------ 4--|
A|--------------------------------|--------------------------------|
E| 0---------- 0-- 0------ 0------| 7---------- 7-- 7------ 7------|
http://classicalguitartablature.blogspot.com/
E|------------------------------12|------ 9------------------------|
B| 4----------------------------12|--12------ 9----12----12--------|
G|------ 4---------------------- 9|-- 9------ 9------ 9 9---- 9-- 4|
D|-- 4-- 4------------ 4------ 4--|---------- 9------ 9------------|
A|--------------------------------|--------------------------------|
E| 7---------- 7 7------ 7--------| 0---------- 0-- 0-------- 0----|
http://classicalguitartablature.blogspot.com/
E|-- 4--------------------------12|------ 9------------------------|
B| 4-------- 4---------- 4------12|--12------ 9----12----12--------|
G|-------------------- 4-------- 9|-- 9------ 9------ 9 9---- 9-- 4|
D| 4---- 4------------ 4----------|---------- 9------ 9------------|
A|--------------------------------|--------------------------------|
E| 4---------- 4-- 4---------- 4--| 0---------- 0-- 0-------- 0----|
http://classicalguitartablature.blogspot.com/
E|-- 4----------------------------|---------------------------- 4--|
B| 4-------- 4---------- 4--------| 5---- 5------------ 5----------|
G|-------------------- 4----------|---- 2-------------- 2----------|
D| 4---- 4------------ 4----------|---- 2------------------ 2------|
A|--------------------------------| 0---------- 0-- 0--------------|
E| 4---------- 4-- 4---------- 4--|--------------------------------|
http://classicalguitartablature.blogspot.com/
E|--------------------------------|--------------------------------|
B| 4------ 4---------- 2----------| 5------ 5---------- 5---- 4 5--|
G| 3---- 2------------ 2------ 2--| 2---- 2------------ 2----------|
D|---- 4------------------ 4------|---- 2-------------- 2----------|
A| 2---------- 2-- 2--------------| 0---------- 0-- 0--------------|
E|--------------------------------|--------------------------------|
http://classicalguitartablature.blogspot.com/
E|---------------------------- 2--| 2-- 0------------------------ 2|
B| 4---- 4------------ 5----------| 0---------------------------- 1|
G|---- 2-------------- 2----------| 1------ 1---------------- 1-- 1|
D|---- 4-------------- 4----------|------ 2---------- 2------ 2----|
A| 2---------- 2-- 2--------------|--------------------------------|
E|--------------------------------| 0---------- 0 0-------- 0------|
http://classicalguitartablature.blogspot.com/
E|-- 0-------------------------- 2|--------------------------------|
B|------------------ 1------ 1-- 5|-- 5----------------------------|
G|------ 1---------- 1---------- 2|-- 2-- 2------------ 2------ 2--|
D|------ 2---------- 2------ 2----|------ 2------------ 2------ 2--|
A|------------------------------ 0|---------- 0---- 0------ 0------|
E| 0-------- 0-- 0------ 0--------|--------------------------------|
http://classicalguitartablature.blogspot.com/
E| 4-------- 5 4------------------| 4------------------------------|
B| 5------ 5 5-- 7---------- 5----| 5------------------------------|
G|---- 5-------- 5-------- 5------| 4-------------- 4--------------|
D|---- 4-------------- 4----------|---------------- 6--------------|
A| 0-------- 0---- 0---------- 0--|--------------------------------|
E|--------------------------------| 0------ 0-- 0-- 0------ 0-- 0--|
http://classicalguitartablature.blogspot.com/
E|--------------------------------| 7------------------------------|
B| 5------------------------------| 5------------------------------|
G| 4-------------- 4--------------| 4-------------- 4--------------|
D| 6-------------- 6--------------|---------------- 6--------------|
A|--------------------------------|--------------------------------|
E| 0------ 0-- 0-- 0------ 0-- 0--| 0------ 0-- 0-- 0------ 0-- 0--|
http://classicalguitartablature.blogspot.com/
E|--------------------------------| 5-------------------- 4---- 5--|
B| 5------------------------------| 2-------------- 2---- 2--------|
G| 6-------------- 6--------------| 2-------------- 2---- 2---- 2--|
D| 6-------------- 6--------------|---------------- 2--------------|
A| 4---- 4---- 4-- 4---- 4-- 4----| 0------ 0-- 0-- 0---- 0---- 0--|
E|--------------------------------|--------------------------------|
http://classicalguitartablature.blogspot.com/
E| 7-------------------- 7-- 6----| 7------------------------------|
B| 4-------------- 4---- 4-- 4----| 5-------------- 4--------------|
G| 4-------------- 4---- 4--------| 4-------------- 4--------------|
D|---------------- 4--------------|---------------- 4--------------|
A|--------------------------------|--------------------------------|
E| 7------ 7 7---- 7---- 7-- 7----| 0------ 0-- 0-- 7------ 7-- 7--|
http://classicalguitartablature.blogspot.com/
E| 7------------------------------| 0------------------------------|
B| 5-------------- 5--------------| 0-------------- 0--------------|
G| 4-------------- 6--------------| 1-------------- 1--------------|
D|---------------- 7--------------|---------------- 2--------------|
A|---------------- 0------ 0-- 0--|--------------------------------|
E| 0------ 0-- 0------------------| 0------ 0-- 0-- 0------ 0-- 0 0|
http://classicalguitartablature.blogspot.com/
E|--------------------------------|--------------------------------|
B|-- 0----------------------------|--------------------------------|
G|--------------------------------|--------------------------------|
D| 2------------------------------|--------------------------------|
A|--------------------------------|--------------------------------|
E|--------------------------------|--------------------------------|
http://classicalguitartablature.blogspot.com/

0 ความคิดเห็น:

แสดงความคิดเห็น