To celebrate the anniversary, I am giving you (finally...) : iPhone LickByNeck !!!!!!

Daughters (BASIC)

John Mayer's tune fingerstyle chord melody guitar BASIC arrangement played in the key of D.

Daughters-John Mayer-BASIC ARRANGEMENT played in the key of D.
http://classicalguitartablature.blogspot.com/
E|------------------------|------------------------|
B| 0-------------- 0------|-------- 2---- 3------ 0|
G| 2---------- 2------ 2--|-------- 2--------------|
D|-------- 0--------------|-------- 0--------------|
A| 2----------------------| 2----------------------|
E|------------------------|------------------------|
http://classicalguitartablature.blogspot.com/
E|------------------------|---------------------- 0|
B|-------------- 0--------|------ 2-------- 3------|
G|------------ 0------ 0--|------ 0----------------|
D|------ 0----------------|------ 0----------------|
A|------------------------|---------------------- 0|
E| 0----------------------| 0----------------------|
http://classicalguitartablature.blogspot.com/
http://classicalguitartablature.blogspot.com/
E|------------------------|------------------ 2 3--|
B|---------------- 0------|------------------------|
G|------------ 0------ 0--|---------------- 0------|
D|------ 0----------------|-------- 0--------------|
A|------------------------| 0----------------------|
E|------------------------|------------------------|
http://classicalguitartablature.blogspot.com/
E| 2----------------------|------------------------|
B|-------------- 3--------|---------------- 3------|
G|-------- 2------ 2------|---------------- 2------|
D|------ 4-------------- 4|-------- 4--------------|
A| 5----------------------| 5----------------------|
E|------------------------|------------------------|
http://classicalguitartablature.blogspot.com/
E|------------------------|---------------- 7---- 0|
B| 7-------------- 7------|------10-------------- 0|
G|------------ 7------ 7--|---------------------- 0|
D|-------- 7--------------| 7----------------------|
A|------------------------|------------------------|
E| 7----------------------|---------------------- 0|
http://classicalguitartablature.blogspot.com/
E|------------------------|------------------------|
B|-- 3 0------------------| 0------ 3------ 0------|
G|-------- 0------------ 0|------------------------|
D|---------------- 0---- 0|------------------------|
A|------------------------|------------------------|
E|------------------------|------------------------|
http://classicalguitartablature.blogspot.com/
E| 2---- 0----------------| 5------ 2------ 2-- 2--|
B| 0------ 3------------ 3|------------------------|
G|---------------- 0------|------------------------|
D|------------------------|------------------------|
A| 0----------------------|---------------------- 5|
E|------------------------|------------------------|
http://classicalguitartablature.blogspot.com/
E|------------------------|------------------------|
B|------------ 2----------|---------------- 3---- 7|
G|-------- 2------ 2------|---------------- 2---- 7|
D|---- 4---------------- 4|-------- 4--------------|
A|------------------------| 5----------------------|
E|------------------------|------------------------|
http://classicalguitartablature.blogspot.com/
E|------------------------| 7-------------------- 0|
B|-------------- 7--------|------ 7-------------- 0|
G|------------ 7------ 7--|---------------- 9---- 0|
D|------ 7----------------|------------------------|
A|------------------------|------------------------|
E| 7----------------------|------------------------|
http://classicalguitartablature.blogspot.com/
E|------------------------| 3------ 2------ 0-- 3--|
B|-- 3 0-------------- 0--|------------------------|
G|-------- 0------ 0------|------------------------|
D|-------------- 0--------|------------------------|
A|------------------------|------------------------|
E| 0----------------------|------------------------|
http://classicalguitartablature.blogspot.com/
E| 2----------------------| 3---- 2------------ 2--|
B|---------------- 0-- 0--| 0---- 0----------------|
G|------------ 0------ 0--| 0------------ 0--------|
D|-------- 0--------------|------------------------|
A| 0----------------------|------------------------|
E|------------------------|------------------------|
http://classicalguitartablature.blogspot.com/
E| 2----------------------|------------------------|
B|---------------- 2------| 3------ 3------ 2------|
G|------------ 2------ 2--| 2------ 2------ 2------|
D|-------- 4--------------|---------------- 2------|
A| 5----------------------| 5-------------- 4------|
E|------------------------|------------------------|
http://classicalguitartablature.blogspot.com/
E| 2-------------- 2------|---------------- 2------|
B| 3------------------ 3--| 3------ 5---- 3------ 3|
G|------------ 2------ 2--| 2------ 2--------------|
D|-------- 4---------- 4--| 4------ 4--------------|
A| 2----------------------|------------------------|
E|------------------------|------------------------|
http://classicalguitartablature.blogspot.com/
E|---------------------- 3|------ 2------ 0---- 3--|
B|---- 0-------- 0---- 0--|------ 0----------------|
G| 0---------- 0----------|------------------------|
D| 0---- 0----------------|------------------------|
A|------------------------|------------------------|
E| 0----------------------|------------------------|
http://classicalguitartablature.blogspot.com/
E|---- 2---------- 2------| 3------ 2---------- 2--|
B|------------ 0------ 3--| 3-------------- 3------|
G|-------- 0--------------|-------------------- 2--|
D|------------------------|------------------------|
A| 0----------------------| 0----------------------|
E|------------------------|------------------------|
http://classicalguitartablature.blogspot.com/
E| 2----------------------|-------------------- 3--|
B|---------------- 2------| 2----------------------|
G|------------ 2----------|------------------------|
D|-------- 4---------- 4--|-------- 4--------------|
A| 5----------------------| 5-------------- 4------|
E|------------------------|------------------------|
http://classicalguitartablature.blogspot.com/
E|------------------------| 7----------------------|
B| 7-------------- 7------| 7------10---------- 7--|
G| 7---------- 7------ 7--| 7------ 7--------------|
D|-------- 7--------------|-------- 7------ 7------|
A|------------------------|------------------------|
E| 7----------------------|------------------------|
http://classicalguitartablature.blogspot.com/
E| 0----------------------|---------------- 0------|
B|-- 3-- 0-------- 0-- 0--| 0------ 3--------------|
G|-------------- 0---- 0--| 0----------------------|
D|-------- 0--------------| 0----------------------|
A|------------------------|------------------------|
E| 0----------------------|------------------------|
http://classicalguitartablature.blogspot.com/
E| 2 0---------------- 2--| 0----------------------|
B|------ 3----------------|-------- 3---------- 3--|
G|------------ 0----------|------------------------|
D|---------------- 0------|------------------------|
A| 0----------------------|------------------------|
E|------------------------|------------------------|
http://classicalguitartablature.blogspot.com/
E|------------------------|------------------------|
B| 3-------------- 3------|-------- 3------ 2------|
G|------------ 2----------|-------- 2------ 2------|
D|-------- 4------------ 4|-------- 4--------------|
A| 5----------------------| 5-------------- 4------|
E|------------------------|------------------------|
http://classicalguitartablature.blogspot.com/
E| 2-- 5---------- 3-- 2--|------ 5-------- 3-- 2--|
B| 3---------- 3------ 0--|------------ 0----------|
G| 2------ 2---------- 0--|-------- 0--------------|
D|------------------------|------------------------|
A| 2----------------------|------------------------|
E|------------------------| 0----------------------|
http://classicalguitartablature.blogspot.com/
E|---------------- 0------|------------------------|
B|---------------------- 3|---------------------- 7|
G|------------ 0-------- 2|------------ 2-------- 7|
D|-------- 0--------------|-------- 4--------------|
A| 0----------------------| 5------------ 4--------|
E|------------------------|------------------------|
http://classicalguitartablature.blogspot.com/
E|---------------- 7------|-------------------- 0--|
B|----10-------------- 5--|-------------- 7--------|
G|---- 7------ 7----------|---- 7------ 7----------|
D| 7------ 7--------------|------ 6----------------|
A|------------------------|------------------------|
E| 7----------------------| 0----------------------|
http://classicalguitartablature.blogspot.com/
E|------------------------|------------------------|
B|------------ 0-------- 3|------------ 3-------- 7|
G|------ 0------ 0--------|-------- 2------------ 7|
D|---- 0-------------- 0--|---- 4------------------|
A| 0----------------------| 5-------------- 4------|
E|------------------------|------------------------|
http://classicalguitartablature.blogspot.com/
E|-------------- 7------10|---- 7---------------- 0|
B|------------10------10--|-------------- 7---- 7 0|
G|-------- 7--------------|------------ 7-------- 0|
D|---- 7------------------|------ 7----------------|
A|---------------------- 7|---------------------- 0|
E| 7----------------------|------------------------|
http://classicalguitartablature.blogspot.com/
E|---- 0-------- 0------ 2|-- 0--------------------|
B|-------------------- 3 3|------ 3------------ 0 0|
G|------------ 0----------| 2---------- 2-------- 2|
D|------ 0----------------|-------------- 4------ 0|
A|------------------------| 5-------------------- 2|
E|------------------------|------------------------|
http://classicalguitartablature.blogspot.com/
E|---------------- 2-- 0--|---------------- 2-- 0--|
B|---- 3------ 0----------|---- 3------------------|
G|------------ 2----------|------------ 0----------|
D|------ 0----------------|-------- 0--------------|
A|------------------------|------------------------|
E|------------------------| 0----------------------|
http://classicalguitartablature.blogspot.com/
E|------------------------|------------------------|
B|---- 3-------------- 3 3|---------------- 3------|
G|-------- 0------ 0------|------------ 2------ 2--|
D|------------ 0----------|-------- 4--------------|
A| 0----------------------| 5----------------------|
E|------------------------|------------------------|
http://classicalguitartablature.blogspot.com/
E|------10----------------|------------------------|
B|------10----------------|------11------13----10--|
G|11--------------11------|12----------------------|
D|----10------10------1012|----12------------------|
A|------------------------|------------------------|
E|10----------------------|10----------------------|
http://classicalguitartablature.blogspot.com/
E|------------------------|------------------------|
B|----------------10------|------------10------ 7--|
G|------------ 7----------|-------- 7--------------|
D|-------- 7---------- 7--|---- 7---------- 7------|
A|------------------------|------------------------|
E|10----------------------|10----------------------|
http://classicalguitartablature.blogspot.com/
E|------------------------|---------------------- 2|
B|--------10---------- 7--|----10----------10-- 8--|
G|11------------12--------|------------ 9----------|
D|----11------11----------|-------- 7--------------|
A|------------------------|------------------------|
E|10----------------------|10----------------------|
http://classicalguitartablature.blogspot.com/
E|------------------------|---------------- 2-- 5--|
B|---------------- 3-- 3--| 3------ 5---- 3--------|
G|------------ 2----------| 2------ 2--------------|
D|------ 4----------------| 4------ 4--------------|
A| 2----------------------| 2----------------------|
E|------------------------|------------------------|
http://classicalguitartablature.blogspot.com/
E|---------------- 5------|-------- 0------ 2-- 5--|
B|-------------------- 3--| 3----------------------|
G|------------ 0----------|------------------------|
D|-------- 0--------------|------------------------|
A|------------------------|------------------------|
E| 0----------------------| 0----------------------|
http://classicalguitartablature.blogspot.com/
E|------------------------|---------------- 2------|
B|---------------- 3-- 3 3|-------- 5---- 3--------|
G|------------ 2------ 2 2|-------- 2------------ 3|
D|-------- 4------------ 4|-------- 4--------------|
A|------------------------|------------------------|
E| 2----------------------| 2-------------------- 3|
http://classicalguitartablature.blogspot.com/
E| 5---- 3----------------|------------------------|
B| 5-------------- 6---- 5|---- 3---------- 3------|
G|---------------------- 3|---- 3------ 3------ 3--|
D|---- 5------ 5------ 5 5|-------- 5--------------|
A|------------------------|------------------------|
E|------------------------| 3----------------------|
http://classicalguitartablature.blogspot.com/
E| 5-------------------- 0|---------------------- 2|
B|------------ 0----------|------------ 0----------|
G|-------- 0------ 0------|-------- 0------ 0------|
D|------ 0------------ 0--|---- 0-------------- 0--|
A| 0----------------------| 0----------------------|
E|------------------------|------------------------|
http://classicalguitartablature.blogspot.com/
E|---------------------- 3|-------------------- 3 9|
B|------------ 0----------|------------ 0-------- 7|
G|-------- 0---- 0--------|-------- 0------------ 7|
D|---- 0-------------- 0--|---- 0---------- 0------|
A| 0----------------------| 0----------------------|
E|------------------------|---------------------- 7|
http://classicalguitartablature.blogspot.com/
E|------10----------------|---------------------- 9|
B|--------------10------ 9|------------ 9----------|
G|---- 7------ 7-------- 7|-------- 7---- 7--------|
D|-------------------- 7--|---- 9-------------- 9--|
A|------------------------| 7----------------------|
E|------------------------|------------------------|
http://classicalguitartablature.blogspot.com/
E|------10----------------|---------------------- 9|
B|-------------- 8------ 7|------------ 7-------- 7|
G|---- 0------------------|------ 7-------- 7------|
D|------------------------|---- 7-------------- 7--|
A| 0-------------------- 5|------------------------|
E|------------------------|---------------------- 7|
http://classicalguitartablature.blogspot.com/
E|------10----------------|------------------------|
B|--------------10------ 9|------------ 9----------|
G|---- 7------------------|-------- 7------ 7------|
D|------------ 7----------|---- 9-------------- 9--|
A|---------------------- 7|------------------------|
E|------------------------|------------------------|
http://classicalguitartablature.blogspot.com/
E| 9------------------10--|------------ 7--10-- 7--|
B|-------- 0------ 0------| 7------10--------------|
G|------ 0---- 0----------|------------------------|
D|------------------------|---- 7------------------|
A| 0----------------------|------------------------|
E|------------------------|10----------------------|
http://classicalguitartablature.blogspot.com/
E|12--12-- 7--------------|------------ 710---- 712|
B| 7-- 7-- 7---------- 7--|--------10--------------|
G| 7-- 7-- 7------ 7------|-------- 7--------------|
D|------------ 7----------|---- 9------------------|
A|------------------------|------------------------|
E| 7----------------------| 0----------------------|
http://classicalguitartablature.blogspot.com/
E|----1210----------------|10------ 7--------------|
B| 0-- 0-- 0---------- 0--| 7--------------10------|
G| 0-- 0---------- 0------|------------------------|
D|------------ 0----------|---- 7------ 7----------|
A| 0----------------------|------------------------|
E|------------------------|10----------------------|
http://classicalguitartablature.blogspot.com/
E|10----------------------|10------ 7------ 7------|
B| 7------ 7------10------| 9------ 9--10----------|
G|------------------------|------------ 7----------|
D|---- 7------ 7------ 7--|---- 9------------------|
A|------------------------|------------------------|
E| 7----------------------| 0----------------------|
http://classicalguitartablature.blogspot.com/
E| 5----------------------|------------------------|
B|------ 5 7 5------------|---------------- 3------|
G|------------------------|------------ 2------ 2--|
D|------------------------|-------- 4--------------|
A| 0----------------------| 5----------------------|
E|------------------------|------------------------|
http://classicalguitartablature.blogspot.com/
E| 2-- 5---------- 3-- 2--|------ 5-------- 3-- 2--|
B| 3---------- 3------ 0--|------------ 0----------|
G| 2------ 2---------- 0--|-------- 0--------------|
D|------------------------|------------------------|
A| 2----------------------|------------------------|
E|------------------------| 0----------------------|
http://classicalguitartablature.blogspot.com/
E|---------------- 0------|------------------------|
B|---------------------- 3|---------------------- 7|
G|------------ 0-------- 2|------------ 2-------- 7|
D|-------- 0--------------|-------- 4--------------|
A| 0----------------------| 5------------ 4--------|
E|------------------------|------------------------|
http://classicalguitartablature.blogspot.com/
E|---------------- 7------|-------------------- 0--|
B|----10-------------- 5--|-------------- 7--------|
G|---- 7------ 7----------|---- 7------ 7----------|
D| 7------ 7--------------|------ 6----------------|
A|------------------------|------------------------|
E| 7----------------------| 0----------------------|
http://classicalguitartablature.blogspot.com/
E|------------------------|------------------------|
B|------------ 0-------- 3|------------ 3-------- 7|
G|------ 0------ 0--------|-------- 2------------ 7|
D|---- 0-------------- 0--|---- 4------------------|
A| 0----------------------| 5-------------- 4------|
E|------------------------|------------------------|
http://classicalguitartablature.blogspot.com/
E|-------------- 7------10|---- 7---------------- 0|
B|------------10------10--|-------------- 7---- 7 0|
G|-------- 7--------------|------------ 7-------- 0|
D|---- 7------------------|------ 7----------------|
A|---------------------- 7|---------------------- 0|
E| 7----------------------|------------------------|
http://classicalguitartablature.blogspot.com/
E|---- 0-------- 0------ 2|-- 0--------------------|
B|-------------------- 3 3|------ 3------------ 0 0|
G|------------ 0----------| 2---------- 2-------- 2|
D|------ 0----------------|-------------- 4------ 0|
A|------------------------| 5-------------------- 2|
E|------------------------|------------------------|
http://classicalguitartablature.blogspot.com/
E|---------------- 2-- 0--|---------------- 2-- 0--|
B|---- 3------ 0----------|---- 3------------------|
G|------------ 2----------|------------ 0----------|
D|------ 0----------------|-------- 0--------------|
A|------------------------|---------------------- 0|
E|------------------------| 0----------------------|
http://classicalguitartablature.blogspot.com/
E|------------------------|------------------------|
B|---- 3-------------- 3 3|-------------- 3---- 0 0|
G|------------ 0----------|------------ 2-------- 2|
D|-------- 0------ 0------|-------- 4------------ 0|
A|---------------------- 5|---------------------- 2|
E|------------------------|------------------------|
http://classicalguitartablature.blogspot.com/
E|---------------- 2-- 0--|---------------- 2-- 0--|
B|---- 3------ 0----------|---- 3------------------|
G|------------ 2----------|------------ 0----------|
D|------ 0----------------|-------- 0--------------|
A|------------------------|---------------------- 0|
E|------------------------| 0----------------------|
http://classicalguitartablature.blogspot.com/
E|------------------------|---------------------- 7|
B|---- 3-------------- 3 3|-------------- 3---- 0 7|
G|------------ 0----------|------------ 2-------- 7|
D|-------- 0------ 0------|-------- 4--------------|
A|---------------------- 5|------------------------|
E|------------------------|-------------------- 7--|
http://classicalguitartablature.blogspot.com/
E|------------------------| 0------------ 0--------|
B|----10---------- 7------| 0---------- 3-- 3------|
G|---- 7---------------- 1|------------------------|
D|------------ 7----------|------------------------|
A|------------------------|---------------------- 0|
E|---------------------- 0|------------------------|
http://classicalguitartablature.blogspot.com/
E| 2----------------------|---------------- 2 0 2--|
B|---------- 0-------- 3--|------------------------|
G| 0----------------------|-------------- 2--------|
D|------------------------|------------------------|
A|------------------------|-------------- 5--------|
E|------------------------|------------------------|
http://classicalguitartablature.blogspot.com/

0 ความคิดเห็น:

แสดงความคิดเห็น