To celebrate the anniversary, I am giving you (finally...) : iPhone LickByNeck !!!!!!

Heart Shaped Box (BASIC)

Nirvana's tune fingerstyle chord melody guitar BASIC arrangement played in the key of Bm.

Heart Shaped Box-Nirvana-BASIC ARRANGEMENT played in the key of Bm.
http://classicalguitartablature.blogspot.com/
E|--------------------------------|--------------------------------|
B|--------------------------------|--------------------------------|
G|-------- 4-------------- 0------|--------------------------------|
D|---- 4------ 4------ 0------ 0--|------------ 2---------- 2------|
A| 2------------------------------|-------- 2---------- 2------ 2--|
E|---------------- 3--------------| 0------------------------------|
http://classicalguitartablature.blogspot.com/
E|--------------------------------|--------------------------------|
B|--------------------------------|--------------------------------|
G|-------- 4-------------- 0------|---- 1-- 1------ 1--------------|
D|---- 4------ 4------ 0------ 0--|------------------ 0---- 0-- 2--|
A| 2------------------------------|------------ 2------------------|
E|---------------- 3--------------| 0------------------------------|
http://classicalguitartablature.blogspot.com/
http://classicalguitartablature.blogspot.com/
E|-------------------- 0------ 2--|---- 0--------------------------|
B|------------ 2-- 3---------- 0--|---- 0------ 3------ 2------ 3--|
G|-------- 4------ 0--------------|------------ 1------ 1----------|
D|---- 4---------- 0------ 0------|-------- 2----------------------|
A| 2------------------------------|--------------------------------|
E|---------------- 3--------------| 0-------------- 0--------------|
http://classicalguitartablature.blogspot.com/
E|--------------------------------|--------------------------------|
B|------------ 2------ 0------ 0--|--------------------------------|
G|------ 4------------ 0------ 1--|---- 1-- 1-- 1-- 1--------------|
D|---- 4--------------------------|-------------------- 0-- 0-- 2--|
A| 2------------------------------|--------------------------------|
E|---------------- 3--------------| 0------------------------------|
http://classicalguitartablature.blogspot.com/
E|-------------------- 0------ 2--|-- 0----------------------------|
B|------------ 2-- 3---------- 0--|-- 0-------- 3---- 2-------- 3--|
G|-------- 4------------------ 1--|------------ 1-------------- 4--|
D|---- 4---------- 0--------------|------ 2-------------------- 4--|
A| 2------------------------------|--------------------------------|
E|---------------- 3--------------| 0-------------- 0--------------|
http://classicalguitartablature.blogspot.com/
E|--------------------------------|--------------------------------|
B|------------ 2------ 0------ 0--|--------------------------------|
G|------ 4---- 0-------------- 1--|---- 1-- 1-- 1-- 1--------------|
D|-- 4-------- 0---------- 0------|------------------ 0---- 0-- 2--|
A| 2------------------------------|--------------------------------|
E|---------------- 3--------------| 0-------------- 0--------------|
http://classicalguitartablature.blogspot.com/
E|-------------------- 0------ 2--|---- 0--------------------------|
B|------------ 2-- 3---------- 0--|---- 0------ 3------ 2------ 3--|
G|-------- 4------------------ 1--|------------ 1------ 1------ 4--|
D|---- 4---------- 0--------------|-------- 2------------------ 4--|
A| 2------------------------------|--------------------------------|
E|---------------- 3--------------| 0-------------- 0--------------|
http://classicalguitartablature.blogspot.com/
E|--------------------------------|--------------------------------|
B|------------ 2------ 0------ 0--|--------------------------------|
G|-------- 4-- 0-------------- 1--|---- 1-- 1-- 1-- 1--------------|
D|---- 4------ 0-------------- 0--|------------------ 0---- 0-- 2--|
A| 2------------------------------|--------------------------------|
E|---------------- 3--------------| 0-------------- 0--------------|
http://classicalguitartablature.blogspot.com/
E|------------------------ 7------|--------------------------------|
B|--------12----------------------|---- 9-- 9-- 9 9----------------|
G|--------------------------------|---- 7------------ 7---- 7------|
D|--------------------------------|--------------------------------|
A|--------11-------------- 7------|-------- 7----------------------|
E| 7-- 7---------- 3-- 3----------| 0-- 0------ 0-- 0-- 0-- 0-- 0--|
http://classicalguitartablature.blogspot.com/
E|------------------ 0------ 2----|---- 0--------------------------|
B|-------------- 3------------ 0--|-- 0-------- 3------ 3 0--------|
G|-------------- 0------------ 1--|------------ 1------ 1 1-- 7----|
D|------ 9--11-- 0----------------|------------ 2------ 2----------|
A|------11---------------- 7------|--------------------------------|
E| 7-- 7---------- 3-- 3----------| 0-- 0-- 0-- 0-- 0-- 0-- 0-- 0--|
http://classicalguitartablature.blogspot.com/
E|------------------------ 7------|--------------------------------|
B|--------12----------------------|---- 9-- 9-- 9 9----------------|
G|--------------------------------|---- 7------------ 7---- 7------|
D|-- 9----------------------------|--------------------------------|
A|--------11-------------- 7------|-------- 7----------------------|
E| 7-- 7---------- 3-- 3----------| 0-- 0------ 0-- 0-- 0-- 0-- 0--|
http://classicalguitartablature.blogspot.com/
E|------------------ 0------ 2----|---- 0--------------------------|
B|-------------- 3------------ 0--|-- 0-------- 3------ 3 0--------|
G|-------------- 0------------ 1--|------------ 1------ 1 1-- 7----|
D|------ 9--11-- 0----------------|------------ 2------ 2----------|
A|------11---------------- 7------|--------------------------------|
E| 7-- 7---------- 3-- 3----------| 0-- 0-- 0-- 0-- 0-- 0-- 0-- 0--|
http://classicalguitartablature.blogspot.com/
E|------------------------ 7------|--------------------------------|
B|--------12----------------------|---- 9-- 9-- 9 9----------------|
G|--------------------------------|---- 7------------ 7---- 7------|
D|-- 9----------------------------|--------------------------------|
A|--------11-------------- 7------|-------- 7----------------------|
E| 7-- 7---------- 3-- 3----------| 0-- 0------ 0-- 0-- 0-- 0-- 0--|
http://classicalguitartablature.blogspot.com/
E|------------------ 0------ 2----|---- 0--------------------------|
B|-------------- 3------------ 0--|-- 0-------- 3------ 3 0---- 3--|
G|-------------- 0------------ 1--|------------ 1------ 1 1--------|
D|------ 9--11-- 0----------------|------------ 2------ 2----------|
A|------11---------------- 7------|--------------------------------|
E| 7-- 7---------- 3-- 3----------| 0-- 0-- 0-- 0-- 0-- 0-- 0-- 0--|
http://classicalguitartablature.blogspot.com/
E|--------------------------------|--------------------------------|
B|---- 0--------------------------|------------------ 3-- 3---- 3--|
G|---- 0--------------------------|------ 1---------- 1------------|
D|--------------------------------|------ 0---------- 0------------|
A|--------------------------------|--------------------------------|
E| 3-- 3-- 3-- 3-- 3-- 3-- 3-- 3 0|-- 0-- 0---- 0-- 0 0---- 0-- 0--|
http://classicalguitartablature.blogspot.com/
E|--------------------------------|--------------------------------|
B|---- 0--------------------------|------------------ 3-- 3-- 3----|
G|---- 0--------------------------|------ 1---------- 1------------|
D|--------------------------------|------ 0---------- 0------------|
A|--------------------------------|--------------------------------|
E| 3-- 3-- 3-- 3-- 3-- 3-- 3-- 3 0|-- 0-- 0---- 0-- 0 0---- 0-- 0--|
http://classicalguitartablature.blogspot.com/
E|--------------------------------|--------------------------------|
B|---- 0--------------------------|--------------------------------|
G|---- 0--------------------------|---- 1---- 1---- 1---- 1--------|
D|---- 0--------------------------|---- 0---- 0---- 0---- 0---- 0--|
A|--------------------------------|--------------------------------|
E| 3-- 3-- 3-- 3-- 3 3---- 3-- 3--| 0------------------------------|
http://classicalguitartablature.blogspot.com/
E|--------------------------------|--------------------------------|
B|--------------------------------|--------------------------------|
G|--------------------------------|--------------------------------|
D|-- 0----------------------------|--------------------------------|
A|--------------------------------|--------------------------------|
E|--------------------------------|--------------------------------|
http://classicalguitartablature.blogspot.com/

0 ความคิดเห็น:

แสดงความคิดเห็น