To celebrate the anniversary, I am giving you (finally...) : iPhone LickByNeck !!!!!!

Hello Goodbye (BASIC)

The Beatles' tune fingerstyle chord melody guitar BASIC arrangement played in the key of C.

Hello Goodbye-The Beatles-BASIC Arrangement played in the key of C.
http://classicalguitartablature.blogspot.com/
E|---- 1------ 1------------------|---- 0------ 0------------------|
B| 3-- 3------ 3------------------| 1-- 1------ 1------------------|
G| 2-- 2------ 2------------------| 0-- 0------ 0------------------|
D| 3------------------------------| 2------------------------------|
A|--------------------------------| 3------------------------------|
E| 1------------------------------|--------------------------------|
http://classicalguitartablature.blogspot.com/
E|--------------------------------|---------------------------- 3--|
B| 0-- 3------ 3------------------|------------------ 5-------- 0--|
G| 0-- 0------ 0-------------- 0--|---- 5------ 5-------------- 0--|
D| 0-- 0------ 0------------------| 7------------------------------|
A|--------------------------------| 0-- 0-- 8-- 7 5----------------|
E| 3------------------------------|------------------ 8---- 7-- 5--|
http://classicalguitartablature.blogspot.com/
http://classicalguitartablature.blogspot.com/
E|---------------------------- 8--|---- 5-------------- 5------ 3--|
B|---------------------------- 5--|---- 5------------------ 5-- 0--|
G|---------------------------- 5--|---- 5---------------------- 0--|
D|--------------------------------|--------------------------------|
A|---- 5-- 2-- 5------ 5-- 2-- 5--|------------ 5-- 7-- 5----------|
E| 3-------------- 3--------------| 5-- 5-- 8-------------- 8-- 5--|
http://classicalguitartablature.blogspot.com/
E|--------------------------------| 3------ 0----------------------|
B|--------------------------------| 1------ 1-- 1 3------ 3--------|
G|--------------------------------| 0------ 0-- 0 0------------ 0--|
D|--------------------------------|------------ 2 2---- 2----------|
A|---- 5-- 2-- 5------ 0-- 2-- 5--|--------------------------------|
E| 3-------------- 3--------------| 3------------------------------|
http://classicalguitartablature.blogspot.com/
E|--------------------------------|------------ 0 3----------------|
B| 1------ 1 1-- 1----------------|------ 1------------------------|
G| 2------ 2------------ 0------ 0|---- 2---------------- 2------ 2|
D| 3------ 3---------- 2------ 2 0|-------------------- 2------ 2--|
A|---------------- 3------ 3------| 2------ 2------ 0------ 0------|
E| 3------------------------------|--------------------------------|
http://classicalguitartablature.blogspot.com/
E|------------ 0-- 1-- 1-- 0------|--------------------------------|
B|------ 1-------- 0-- 1-- 1-- 3 1|---- 1-- 1---- 1----------------|
G|---- 2---------- 2-- 2-------- 1|---- 1------ 2-------- 0------ 0|
D|--------------------------------|---- 1-------------- 2------ 2 0|
A|--------------------------------| 1------ 1------ 3------ 3------|
E| 3------ 3------ 1------ 1------|--------------------------------|
http://classicalguitartablature.blogspot.com/
E|------------ 0 3----------------|------------ 0-- 1-- 1-- 0------|
B|------ 1------------------------|------ 1-------- 0-- 1-- 1-- 3 1|
G|---- 2---------------- 2------ 2|---- 2---------- 2-- 2-------- 1|
D|-------------------- 2------ 2--|--------------------------------|
A| 2------ 2------ 0------ 0------|--------------------------------|
E|--------------------------------| 3------ 3------ 1------ 1------|
http://classicalguitartablature.blogspot.com/
E|--------------------------------|-------------------- 1------ 1--|
B|---- 1-- 1---- 1----------------|---------------- 3-- 3------ 3--|
G|---- 1------ 2 0---- 0----------|---------------- 2-- 2------ 2--|
D|---- 1-------- 2---- 2----------|---------------- 3--------------|
A| 1------ 1------ 3------ 3-- 5--|-------- 0-- 3------------------|
E|--------------------------------| 0-- 3---------- 1--------------|
http://classicalguitartablature.blogspot.com/
E|-------------------- 0------ 0--|--------------------------------|
B|---------------- 1-- 1------ 1--|---------------- 0-- 3------ 3--|
G|---------------- 0-- 0------ 0--|---------------- 0-- 0------ 0--|
D|---------------- 2--------------|---------------- 0-- 0------ 0--|
A|---------------- 3--------------|--------------------------------|
E|--------------------------------|---------------- 3--------------|
http://classicalguitartablature.blogspot.com/
E|--------------------------------|------------ 3------------------|
B|--------------------------------|-- 5-------- 0------------------|
G|------------ 0------ 5------ 5--|------------ 0------------------|
D|---------------- 7--------------|--------------------------------|
A|---------------- 0-- 0-- 8-- 7 5|-------------------- 5-- 2-- 5--|
E|--------------------------------|-- 8---- 7-- 5-- 3--------------|
http://classicalguitartablature.blogspot.com/
E|------------ 8------ 5----------|---- 5------ 3------------------|
B|------------ 5------ 5----------|-------- 5-- 0------------------|
G|------------ 5------ 5----------|------------ 0------------------|
D|--------------------------------|--------------------------------|
A|---- 5-- 2-- 5-------------- 5--| 7-- 5-------------- 5-- 2-- 5--|
E| 3-------------- 5-- 5-- 8------|-------- 8-- 5-- 3--------------|
http://classicalguitartablature.blogspot.com/
E|---------------- 3------ 0------|--------------------------------|
B|---------------- 1------ 1-- 1 3|------ 3-------- 1------ 1 1 1--|
G|---------------- 0------ 0-- 0 0|------------ 0-- 2------ 2------|
D|---------------------------- 2 2|---- 2---------- 3------ 3------|
A|---- 0-- 2-- 5------------------|--------------------------------|
E| 3-------------- 3--------------|---------------- 3--------------|
http://classicalguitartablature.blogspot.com/
E|-------- 0 1------------ 7-- 8--|-------------- 0---- 1-- 3-- 5--|
B| 1-- 3-- 1-- 1-- 8--10-- 8-- 5--|-------------- 1---- 1-- 1-- 6--|
G|-------- 0-- 0-- 7-- 7-- 7-- 5--|-- 5-------- 5 0---- 0-- 0-- 5--|
D|---------------- 9-- 9----------|-- 7------ 7--------------------|
A| 3------ 3----------------------|--------------------------------|
E|---------------- 7------ 7------| 5------ 5------ 3------ 3------|
http://classicalguitartablature.blogspot.com/
E|--------------------------------|-------- 0-- 1---------- 7-- 8--|
B|---------------- 9-- 6------ 1--| 1-- 3-- 1-- 1-- 8--10-- 8-- 5--|
G|---- 5------ 5-- 7-- 7-- 7------| 0------ 0------ 7-- 7-- 7-- 5--|
D|---- 7------ 7-- 8-- 8-- 8------| 2-------------- 9-- 9----------|
A| 8------ 8----------------------| 3------ 3----------------------|
E|---------------- 6------ 6------|---------------- 7------ 7------|
http://classicalguitartablature.blogspot.com/
E|-------------- 0---- 1-- 3-- 5--|--------------------------------|
B|-------------- 1---- 1-- 1-- 6--|---------------- 9-- 6----------|
G|-- 5-------- 5 0---- 0-- 0-- 5--|---- 5------ 5-- 7-- 7-- 7-- 5--|
D|-- 7------ 7--------------------|---- 7------ 7-- 8-- 8-- 8------|
A|--------------------------------| 8------ 8----------------------|
E| 5------ 5------ 3------ 3------|---------------- 6------ 6------|
http://classicalguitartablature.blogspot.com/
E|--------------------------------| 1------ 1------ 1--------------|
B|--------------------------------| 3-- 3-- 3-- 3-- 3------ 1-- 3--|
G|--------------------------------| 2-- 2-- 2-- 2-- 2-- 2----------|
D|---- 5--------------------------|---- 3------ 3------------------|
A| 3------ 3-- 5-- 7-- 3-- 5-- 7--|--------------------------------|
E|--------------------------------| 1------------------------------|
http://classicalguitartablature.blogspot.com/
E| 0-- 1-- 0------------------ 0--|--------------------------------|
B| 1-- 1-- 1-- 3-- 1-- 1-- 3------|--------------------1312--------|
G| 0-- 0-- 0-- 0-- 0-- 0----------|10----10----10------10--10--12--|
D|------------ 2-- 2-- 2----------|12----12----12------12--12------|
A| 3------------------------------|10------------------------------|
E|--------------------------------|--------------------------------|
http://classicalguitartablature.blogspot.com/
E|---------------------------- 3--|------------ 3-- 3-- 3-- 3------|
B|------ 5---------------- 5-- 3--|------------ 3-- 3-- 3-- 3------|
G|------------ 5-------------- 0--|---------------- 0-- 0-- 0------|
D|--------------------------------|--------------------------------|
A|12--10-- 8-- 7-- 5--------------|---- 5-- 2-- 5------ 5-- 2-- 5--|
E|-------------------- 8-- 7-- 5--| 3-------------- 3--------------|
http://classicalguitartablature.blogspot.com/
E| 8------ 5---------- 5------ 3--|------------ 5------------------|
B| 5------ 5-------------- 5-- 0--|------------ 0------------------|
G| 5------ 5------------------ 0--|------------ 0------------------|
D|--------------------------------|--------------------------------|
A|------------ 5-- 7-- 5----------|---- 5-- 2-- 5------ 0-- 2-- 5--|
E| 5-- 5-- 8-------------- 8-- 5--| 3-------------- 3--------------|
http://classicalguitartablature.blogspot.com/
E| 3------ 0----------------------|--------------------------------|
B| 1------ 1-- 1 3------ 3--------| 1------ 1 1-- 1----------------|
G| 0------ 0-- 0 0------------ 0--| 2------ 2------------ 0------ 0|
D|------------ 2 2---- 2----------| 3------ 3---------- 2------ 2 0|
A|--------------------------------|---------------- 3------ 3------|
E| 3------------------------------| 3------------------------------|
http://classicalguitartablature.blogspot.com/
E|------------ 0 3----------------|------------ 0-- 1-- 1-- 0------|
B|------ 1------------------------|------ 1-------- 0-- 1-- 1-- 3 1|
G|---- 2---------------- 2------ 2|---- 2---------- 2-- 2-------- 1|
D|-------------------- 2------ 2--|--------------------------------|
A| 2------ 2------ 0------ 0------|--------------------------------|
E|--------------------------------| 3------ 3------ 1------ 1------|
http://classicalguitartablature.blogspot.com/
E|--------------------------------|------------ 0 3----------------|
B|---- 1-- 1---- 1----------------|------ 1------------------------|
G|---- 1------ 2-------- 0------ 0|---- 2---------------- 2------ 2|
D|---- 1-------------- 2------ 2 0|-------------------- 2------ 2--|
A| 1------ 1------ 3------ 3------| 2------ 2------ 0------ 0------|
E|--------------------------------|--------------------------------|
http://classicalguitartablature.blogspot.com/
E|------------ 0-- 1-- 1-- 0------|--------------------------------|
B|------ 1-------- 0-- 1-- 1-- 3 1|---- 1-- 1---- 1----------------|
G|---- 2---------- 2-- 2-------- 1|---- 1------ 2-------- 0------ 0|
D|--------------------------------|---- 1-------------- 2------ 2 0|
A|--------------------------------| 1------ 1------ 3------ 3------|
E| 3------ 3------ 1------ 1------|--------------------------------|
http://classicalguitartablature.blogspot.com/
E|------------ 0 3----------------|------------ 0-- 1-- 1-- 0------|
B|------ 1------------------------|------ 1-------- 0-- 1-- 1-- 3 1|
G|---- 2---------------- 2------ 2|---- 2---------- 2-- 2-------- 1|
D|-------------------- 2------ 2--|--------------------------------|
A| 2------ 2------ 0------ 0------|--------------------------------|
E|--------------------------------| 3------ 3------ 1------ 1------|
http://classicalguitartablature.blogspot.com/
E|------------------------ 3------|-------- 3----------------------|
B|---- 1-- 1-------------- 3------|--------------------------------|
G|---- 1------ 2-- 5--------------| 5-------------- 5--------------|
D|---- 1---------- 3--------------| 3-------------- 3--------------|
A| 1------ 1----------------------|--------------------------------|
E|---------------- 6-- 6-- 6-- 6--| 5-- 5-- 5-- 5-- 4-- 4-- 4-- 4--|
http://classicalguitartablature.blogspot.com/
E|-------------- 3----------------|--------------------------------|
B|---------------- 5---- 3 5 3----|--------------------------------|
G|------------ 5-- 5---- 5--------| 5------------------------------|
D|------------ 3-------- 5--------|--------------------------------|
A|---------------- 3--------------|--------------------------------|
E| 3-- 3-- 3-- 3------------------|--------------------------------|
http://classicalguitartablature.blogspot.com/

0 ความคิดเห็น:

แสดงความคิดเห็น