To celebrate the anniversary, I am giving you (finally...) : iPhone LickByNeck !!!!!!

I Can Sing A Rainbow (BASIC)

Delta Goodrem's tune fingerstyle chord melody guitar BASIC arrangement played in the key of C.

I Can Sing A Rainbow-Delta Goodrem-BASIC ARRANGEMENT played in the key of C.
http://classicalguitartablature.blogspot.com/
E| 7------------------------------|---------------- 0------------ 0|
B|10------10----------------------| 1------ 1-- 3-- 1-- 1-- 3---- 1|
G|---- 9--------------------------|-------- 0------ 0-- 0-- 0------|
D|--------------------------------|---- 2-------------- 2------ 2--|
A| 8------------------------------| 3------------------------------|
E|--------------------------------|---------------- 0--------------|
http://classicalguitartablature.blogspot.com/
E|------ 3------ 3----------------| 5------------------------------|
B|------ 1------ 5------------ 5--|---- 6---------- 8-- 5----------|
G|---------------- 3---- 3------ 7|-------- 7------ 5------ 5------|
D|---- 2---- 2------ 5------------|-------------- 5-------- 5---- 3|
A|-------------- 3-------------- 8|-------------- 7-------------- 5|
E| 3------------------------------|--------------------------------|
http://classicalguitartablature.blogspot.com/
http://classicalguitartablature.blogspot.com/
E|--------------------------------|------ 3-------- 7--------------|
B| 3---------- 3------------------| 5 6------------------10--------|
G| 5---- 5------------ 0------ 0--| 3-------- 5-- 9-- 9------ 9----|
D|---- 3-------------- 0------ 0 5|--------------------------------|
A|------------------------ 2---- 3|-------------- 8----------------|
E|---------------- 3--------------|--------------------------------|
http://classicalguitartablature.blogspot.com/
E|--------------------------------|--------------------------------|
B|-------- 8------ 8------ 6------|-------- 5------ 5------ 3------|
G|---- 5------ 5-- 6-- 6------ 6--|---- 5---------- 4------ 0------|
D|-- 5---------- 5---- 5----------|---- 5------ 5-- 3-- 3-- 3-- 3--|
A| 7------------------------------| 5-------------------- 2------ 3|
E|-------------- 5----------------|-------------- 3----------------|
http://classicalguitartablature.blogspot.com/
E|--------------------------------|--------------------------------|
B| 1------ 1------------ 5--------|10--10--10--10-- 8------ 8------|
G| 0---- 0-- 0-------- 3---- 3----| 9-- 9-- 9-- 9-- 7---- 7-- 7----|
D| 2-- 2------ 2------ 2------ 210|---------------- 5-- 5-------- 5|
A|--------------------------------| 8------------ 7-------------- 5|
E|---------------- 2--------------|--------------------------------|
http://classicalguitartablature.blogspot.com/
E| 5-- 5-- 5-- 5-- 3--------------|--------------------------------|
B| 6-- 6-- 6-- 6-- 5------ 5------| 6-- 6-- 6-- 6-- 6------ 6------|
G| 5-- 5-- 5-- 5-- 4---- 4-- 4----| 5-- 5-- 5-- 5-- 4------ 4------|
D|-------------------- 5------ 5--| 3-- 3-- 3-- 3------ 3------ 3 5|
A|-------------- 3-------------- 5|------------------------------ 3|
E|--------------------------------|---------------- 3--------------|
http://classicalguitartablature.blogspot.com/
E|--------------------------------| 2 0----------------------------|
B| 5------ 5------------ 5-- 6 8--| 3------ 3---- 3-------- 8------|
G| 4---- 4-- 4-------- 6----------| 2------ 5 5-- 4-------- 6------|
D|---- 5-------- 5-- 5------------|------ 3------------ 3------ 5--|
A|------------------------------ 5|--------------------------------|
E|---------------- 5--------------|------ 4-------- 3------ 5------|
http://classicalguitartablature.blogspot.com/
E|------------------------ 3------|--------------------------------|
B|-------- 7-- 5-- 3--------------|-------- 1-- 0-------------- 3--|
G|---- 5-- 5-- 5-- 4--------------|------ 2 2-- 2-- 2------ 2------|
D|-- 4---- 4-- 4-- 3-- 3------ 3--|---- 0-------- 1---- 1----------|
A| 5------------------------------|--------------------------------|
E|-------- 4---- 3----------------| 1-------------- 2--------------|
http://classicalguitartablature.blogspot.com/
E|--------------------------------|---------------- 0------------ 0|
B|-------- 0----------------------| 1------ 1-- 3-- 1-- 1-- 3---- 1|
G| 0-- 0---- 0---------- 2---- 0--|-------- 0------ 0-- 0-- 0------|
D|---- 0-------- 0-- 3------ 0----|---- 2-------------- 2------ 2--|
A|---------------- 0------ 2------| 3------------------------------|
E| 3------------------------------|---------------- 0--------------|
http://classicalguitartablature.blogspot.com/
E|------ 3------ 3----------------| 5------------------------------|
B|------ 1------ 5------------ 5--|---- 6---------- 8-- 5----------|
G|---------------- 3---- 3------ 7|-------- 7------ 5------ 5------|
D|---- 2---- 2------ 5------------|-------------- 5-------- 5---- 3|
A|-------------- 3-------------- 8|-------------- 7-------------- 5|
E| 3------------------------------|--------------------------------|
http://classicalguitartablature.blogspot.com/
E|--------------------------------| 0-- 1 3------------------------|
B| 3---------- 3------------------| 1-- 1------ 1--12----10--------|
G| 5---- 5------------ 0------ 0 0|---- 0---------- 9---- 9--------|
D|---- 3-------------- 0------ 0--|--------------10----10------10--|
A|------------------------ 2---- 3|-------------- 9----------------|
E|---------------- 3--------------|--------------------------------|
http://classicalguitartablature.blogspot.com/
E|--------------------------------|--------------------------------|
B|-------- 8------ 8------ 6------|-------- 5------ 5------ 3------|
G|---- 5------ 5-- 7------ 7------|---- 7 6-------- 5------ 4------|
D|-- 7---------------- 6------ 6--|---- 5------ 5 3---- 3------ 3 2|
A| 8------------ 8----------------| 7------ 6---- 5-------- 4---- 3|
E|--------------------------------|--------------------------------|
http://classicalguitartablature.blogspot.com/
E|--------------------------------|--------------------------------|
B| 1---------- 1-------------- 1--|------------------ 5------------|
G| 0------ 0-------------- 2------|-- 5------ 5-- 7-- 5------ 5-- 7|
D|---- 2-------------- 3----------| 5---- 5---------- 5-- 5--------|
A|--------------------------------|--------------------------------|
E|---------------- 3--------------| 8---------------- 6------------|
http://classicalguitartablature.blogspot.com/
E|------------ 3------ 3----------|------ 5---------------- 3------|
B|---- 5---------------- 6------ 6|------------ 6-------------- 5--|
G|---- 5-------------- 5------ 5--| 5---- 7-------- 7------ 5------|
D|---- 3-- 3------ 3-------- 3----|---- 3-------------- 7---- 3----|
A|--------------------------------|--------------------------------|
E|-- 5---------------- 4----------|------ 5---------------- 4------|
http://classicalguitartablature.blogspot.com/
E|--------------------------------|--------------------------------|
B|---------- 3------ 3------------|---- 3-------- 5-- 6-- 8--------|
G| 5-------- 2---- 2---- 2--------|-- 1-- 1------ 5------ 5-- 5----|
D|------ 3-- 2-- 2-------- 2---- 3|---------- 3 5-------- 7--------|
A|--------------------------------|------------ 7-------- 6------ 5|
E|---------- 2---------------- 1--|--------------------------------|
http://classicalguitartablature.blogspot.com/
E| 7------ 5---------------- 3----|--------------------------------|
B| 6---- 6 5---------------- 1----| 1-- 8-------- 6----------------|
G| 7-- 7-- 3---- 3-------- 2 2----| 2-- 7------ 7 6------ 6--------|
D|---------------------- 3--------| 1-- 6-- 6-- 5------ 5-------- 3|
A|-------- 4-------- 3------ 2----|--------------------------------|
E|--------------------------------|---- 6-------- 5-------- 4------|
http://classicalguitartablature.blogspot.com/
E|---- 0-------- 0----------------|--------------------------------|
B|---- 1-------- 1---------- 3----|--------------------------------|
G| 5 0---- 0---- 2------ 2-- 1----|-- 1----------------------------|
D|-------------------- 2---- 3----| 3------------------------------|
A|--------------------------------|--------------------------------|
E|-- 3---------- 2---------- 1----|--------------------------------|
http://classicalguitartablature.blogspot.com/
E|--------------------------------|--------------------------------|
B|-- 1----------------------------|--------------------------------|
G| 0------------------------------|--------------------------------|
D| 2------------------------------|--------------------------------|
A|--------------------------------|--------------------------------|
E| 0------------------------------|--------------------------------|
http://classicalguitartablature.blogspot.com/

0 ความคิดเห็น:

แสดงความคิดเห็น