To celebrate the anniversary, I am giving you (finally...) : iPhone LickByNeck !!!!!!

It HAd Better Be Tonight / Meglio Stasera , Pink Panther (BASIC)

Henry Mancini's tune fingerstyle chord melody guitar BASIC arrangement played in the key of Bm.

It Had Better Be Tonight Meglio Stasera Pink Panther-Henry Mancin-BASIC ARRANGEMENT played in the key of Bm.
http://classicalguitartablature.blogspot.com/
E| 9 7 7 9 7-- 7 9 7 9 7-- 9-- 7 9|-- 7-- 7 9-- 7 9-- 7 7 9 7-- 7 9|
B| 8-------- 8-------------- 8-- 7|-- 7-- 7-- 7---- 7-------- 7--12|
G|-------------- 9----------------|---- 7 7------------------------|
D|--------------------------------|--------------------------------|
A| 7-------------- 7--------------|-------- 9------------ 9--------|
E|------ 7---------------- 7------| 7-------------- 7------------ 9|
http://classicalguitartablature.blogspot.com/
E|-- 9-- 9------ 9-- 9-- 9--------|-------------------- 2 2-- 2----|
B|12--12--12--12----1111--11--11 0|-- 0---- 0 0-- 0---- 0 0---- 0--|
G|10--------10-------------- 9-- 1|---- 1-- 1 1-- 1---- 1 1-- 1----|
D|------------------------------ 0|---- 0-- 0 0-- 0----------------|
A|------11------ 9----------------| 2-- 2-- 2 2-- 2----------------|
E|------------------------ 9------|--------------------------------|
http://classicalguitartablature.blogspot.com/
http://classicalguitartablature.blogspot.com/
E| 3---- 2------------------------|------------------ 2-- 2-- 2----|
B| 2---- 3------ 5---- 3-------- 1|---------- 0------ 0-- 0-- 0----|
G| 0---- 2-------- 3-- 4-------- 3|---- 3---- 1------ 1-- 1-- 1----|
D|---- 4---------- 5-- 4-------- 2|---- 2---- 0--------------------|
A| 1---- 2-------- 4---- 5--------| 3-------- 2------ 2------------|
E|--------------------------------|------ 2------------------------|
http://classicalguitartablature.blogspot.com/
E| 3---- 2------------------------|------------------ 3-- 0--------|
B| 2---- 3------ 5---- 3-------- 1|-- 1-- 1---- 1------ 1 1---- 1--|
G| 0---- 4------ 3---- 4-------- 3|-- 3-- 3---- 3-- 0---- 0--------|
D|-------------- 5---- 4-------- 2|-- 2-- 2---- 2------------------|
A| 1---- 2------ 4---- 5----------| 3-------------- 3--------------|
E|--------------------------------|-------- 3------------ 3--------|
http://classicalguitartablature.blogspot.com/
E|--------------------------------|--------------------------------|
B| 0---------------- 0-- 0---- 0--|-- 0-- 0---- 0---- 0-- 0---- 0--|
G|-- 2-- 2---- 2-------------- 2--|-- 2-- 2---- 2---- 2-- 2--------|
D|-- 0-- 0---- 0---- 0-- 0---- 0--|-- 0-- 0---- 0---- 0-- 0---- 0--|
A| 2-------------- 2--------------| 2-------------- 2--------------|
E|-------- 2-------------- 2------|-------- 2-------------- 2------|
http://classicalguitartablature.blogspot.com/
E|------------------ 2-- 0--------|--------------------------------|
B|-------- 0-- 2 3------ 0-- 3-- 3|------ 2------------------------|
G|-- 2 2---- 2---------- 2--------|-- 0 0------ 0---- 0 0------ 0--|
D|-- 0 0 0-------- 0--------------|-- 2 2------ 2---- 2 2------ 2--|
A| 2-------------- 2--------------|-------- 2-------------- 2------|
E|-------- 2------------ 2--------| 0-------------- 0--------------|
http://classicalguitartablature.blogspot.com/
E|---------------------- 2--------|--------------------------------|
B|------ 2---- 3 5-- 2-------- 5 3|--------------------------------|
G|-- 3 3 3------ 3-- 3------ 3----|-- 4-- 4---- 4---- 4 4---- 4----|
D|-- 2-- 2---------- 2------------|-- 4-- 4---- 4---- 4 4---- 4----|
A|-------- 4-------------- 4------| 2-------------- 2--------------|
E| 2-------------- 2--------------|-------- 2-------------- 2------|
http://classicalguitartablature.blogspot.com/
E|---------------- 2---------- 2--| 5---- 3-------------------- 2--|
B|-------- 4-- 5-- 2------ 4------| 0---- 0---- 0---- 0-- 0--------|
G|-- 2-- 2 2------ 2-- 4----------|------------ 0---- 0-- 0--------|
D|-- 4-- 4 4-------------- 4------|-- 2-------------- 2------------|
A| 2-------------- 2--------------|-------- 2-------------- 2------|
E|-------- 2-------------- 2------| 0-------------- 0--------------|
http://classicalguitartablature.blogspot.com/
E| 1------------------------------|--------------------------------|
B| 2------------------------ 2----| 5------------------------------|
G| 1 1-- 1---- 1---- 1-- 1-- 1----| 3 3-- 3---- 3---- 3 3---- 3----|
D|-- 3-- 3---- 3---- 3-- 3-- 3----| 2 2-- 2---- 2---- 2------ 2----|
A| 4-------------- 4--------------|-------- 4-------------- 4------|
E|-------- 4-------------- 4------| 2-------------- 2--------------|
http://classicalguitartablature.blogspot.com/
E|------------------ 2-- 0--------|--------------------------------|
B|-------- 0-- 2 3------ 0-- 3-- 3|------ 2------------------------|
G|-- 2 2---- 2---------- 2--------|-- 0 0------ 0---- 0 0------ 0--|
D|-- 0 0 0-------- 0--------------|-- 2 2------ 2---- 2 2------ 2--|
A| 2-------------- 2--------------|-------- 2-------------- 2------|
E|-------- 2------------ 2--------| 0-------------- 0--------------|
http://classicalguitartablature.blogspot.com/
E|---------------------- 2--------|--------------------------------|
B|------ 2---- 3 5-- 2-------- 5 3|--------------------------------|
G|-- 3 3 3------ 3-- 3------ 3----|-- 4-- 4---- 4---- 4 4---- 4----|
D|-- 2-- 2---------- 2------------|-- 4-- 4---- 4---- 4 4---- 4----|
A|-------- 4-------------- 4------| 2-------------- 2--------------|
E| 2-------------- 2--------------|-------- 2-------------- 2------|
http://classicalguitartablature.blogspot.com/
E|---------------- 2---------- 2--| 5---- 3-------------------- 3--|
B|-------- 4-- 5-- 2------ 4------| 0---- 0---- 0---- 0-- 0---- 0--|
G|-- 2-- 2 2------ 2-- 4----------|------------ 0---- 0-- 0--------|
D|-- 4-- 4 4-------------- 4------|-- 2-------------- 2-- 2--------|
A| 2-------------- 2--------------|-------- 2-------------- 2------|
E|-------- 2-------------- 2------| 0-------------- 0--------------|
http://classicalguitartablature.blogspot.com/
E| 2------------------------------|-------------------- 2-- 2---- 2|
B| 3---- 3------------ 3-- 3-- 3--| 0------------------------------|
G|------ 4---- 4------ 3-- 3-- 3--|-- 2-- 2---- 2-- 2--------------|
D|-- 4-------- 4---- 2-------- 2--|-- 0-- 0---- 0-- 0--------------|
A| 2---------------------- 4------| 2-------------- 2--------------|
E|-------- 2------ 2--------------|-------- 2----------------------|
http://classicalguitartablature.blogspot.com/
E| 3---- 2------------------------|------------------ 2-- 2-- 2----|
B| 2---- 3------ 5---- 3-------- 1|---------- 0------ 0-- 0-- 0----|
G| 0---- 2-------- 3-- 4-------- 3|---- 3---- 1------ 1-- 1-- 1----|
D|---- 4---------- 5-- 4-------- 2|---- 2---- 0--------------------|
A| 1---- 2-------- 4---- 5--------| 3-------- 2------ 2------------|
E|--------------------------------|------ 2------------------------|
http://classicalguitartablature.blogspot.com/
E| 3---- 2------------------------|------------------------ 0------|
B| 2---- 3------ 5---- 3----------| 1------------------------------|
G| 0---- 4------ 3---- 4----------|---- 3 3---- 3---- 3 3----------|
D|-------------- 5---- 4----------|---- 2 2---- 2------ 2---- 2----|
A| 1---- 2------ 4---- 5----------| 3-------------- 3--------------|
E|--------------------------------|-------- 3-------------- 3------|
http://classicalguitartablature.blogspot.com/
E| 3-------------- 8--------------| 7------------------------------|
B| 1-------------- 8--------------|------------------ 8-- 8---- 8--|
G| 0 0-- 0---- 0-- 9-- 9 9---- 9--|---- 7------------ 9-- 9---- 9--|
D|-- 2-- 2---- 2------ 8 8---- 8--|---- 9---- 9-- 9-- 9-- 9---- 9--|
A| 3----------------------10------|-------- 9------ 7--------------|
E|-------- 3------ 8--------------| 7---------------------- 7------|
http://classicalguitartablature.blogspot.com/
E|--------------------------------|--------------------------------|
B| 3-- 3------------ 0 0------ 0--| 2-------------- 3--------------|
G| 4-- 4---- 4 4-------- 0---- 0--| 4-------------- 4--------------|
D| 4-- 4---- 4------ 2-- 2---- 0--| 4-------------- 4--------------|
A| 2---------------------- 2------| 2-------------- 2--------------|
E|-------- 2---- 0----------------|------------ 2------------------|
http://classicalguitartablature.blogspot.com/
E|--------------------------------|--------------------------------|
B|--------------------------------|--------------------------------|
G|--------------------------------|--------------------------------|
D|--------------------------------|--------------------------------|
A|--------------------------------|--------------------------------|
E|--------------------------------|--------------------------------|
http://classicalguitartablature.blogspot.com/

0 ความคิดเห็น:

แสดงความคิดเห็น