To celebrate the anniversary, I am giving you (finally...) : iPhone LickByNeck !!!!!!

Lesson In Love (BASIC)

Level 42's song fingerstyle chord melody guitar BASIC arrangement played in the key of C.

Lesson In Love-Level 42-BASIC ARRANGEMENT played in the key of C.
http://classicalguitartablature.blogspot.com/
E|--------------------------------|--------------------------------|
B| 2---------- 3-------------- 3--|------------------------------ 2|
G| 2---------- 0-------------- 2--|------------------------------ 2|
D| 2---------- 0-------------- 3--|------------------------------ 2|
A| 0------------------------------|--------------------------------|
E|------------ 3-------------- 1--|--------------------------------|
http://classicalguitartablature.blogspot.com/
E|--------------------------------|--------------------------------|
B|------------ 3------------ 3----|---------------- 0-- 0----------|
G|------------ 0------------ 2----|-------------- 0-------- 2-- 0--|
D|------------ 0------------ 4----|--------------------------------|
A| 0-------------------------- 5--|--------------------------------|
E|------------ 3------------------|--------------------------------|
http://classicalguitartablature.blogspot.com/
http://classicalguitartablature.blogspot.com/
E|--------------------------------|---------------------- 0-- 0 0--|
B|---------------------- 1-- 1 1--|---------------- 0 0 0----------|
G| 0------------ 0-- 0 0----------|-------- 1 1 1------------------|
D|------ 2-- 2 2------------------| 2-- 2 2------------------------|
A| 3 3 3--------------------------|--------------------------------|
E|--------------------------------| 0------------------------------|
http://classicalguitartablature.blogspot.com/
E|--------------------------------|---------------------- 1-- 1 1--|
B|--------------------------------|-------------- 1-- 1 1----------|
G|---------------------- 2-- 2 2--|-------- 2 2 2------------------|
D|---------------- 2 2 2-------- 3|-- 3 3--------------------------|
A| 0 0-- 0-- 3-- 3 0--------------|------------------------------ 3|
E|--------------------------------| 1------------------------------|
http://classicalguitartablature.blogspot.com/
E|--------------------------------|---------------- 0--------------|
B|---- 1-------- 1------ 3---- 0--|------ 0---- 0-- 0-- 3---- 1----|
G|---- 0-------- 0----------------|------ 1---- 1------ 1---- 2----|
D|---- 2-------- 2-- 2------------|------ 2---- 2------------ 2----|
A|---------- 3--------------------|------------------------------ 0|
E|--------------------------------| 0---------- 0------------------|
http://classicalguitartablature.blogspot.com/
E|-------------------------- 0-- 1|---------- 1------ 3------ 0----|
B|---- 1---- 1------ 3------ 1-- 1|------ 1---------- 1------ 1----|
G|---- 2---- 2------ 2---------- 2|---------- 2-------- 2---- 0----|
D|---- 2---- 2------ 2------------|---- 3--------------------------|
A|------------ 0------------------|------------------------------ 3|
E|--------------------------------| 1---------- 1------------------|
http://classicalguitartablature.blogspot.com/
E|-------------- 0------ 3--------| 4---- 0---------- 0------------|
B|---- 1-------- 1------ 1--------| 3---- 3---- 3------ 3---- 3----|
G|---- 0-------- 0----------------| 4---- 4---- 4---- 4------ 2----|
D|---- 2------------ 2-------- 2--|---- 2------ 2------------ 2----|
A|------------ 3------------------|------------------------------ 0|
E|--------------------------------| 0---------- 0------------------|
http://classicalguitartablature.blogspot.com/
E|-------------------------- 0-- 1|---------- 1-------- 3---- 0----|
B|-- 1-------------- 3------------|------ 1-- 1-------- 1---- 1----|
G|-- 2------ 2------ 2---------- 2|-- 2-- 2-- 2-------- 2------ 0--|
D|-- 2------ 2------ 2------------|------ 3------------------------|
A|---------- 0--------------------|------------------------------ 3|
E|--------------------------------| 1---------- 1------------------|
http://classicalguitartablature.blogspot.com/
E|--------------------------------|-------------- 0----------------|
B| 3 1---------- 1------ 3---- 0--|---- 0---- 0-- 0-- 3------ 1----|
G|-------------- 0---------- 1----|---- 1---- 1------ 1------ 2----|
D|-------------- 2-- 2------------|---- 2---- 2--------------------|
A|---------- 3--------------------|------------------------------ 0|
E|--------------------------------| 0---------- 0------------------|
http://classicalguitartablature.blogspot.com/
E|-------------------------- 0-- 1|---------- 1------ 3------ 0----|
B|---- 1---- 1------ 3------ 1-- 1|------ 1---------- 1-------- 1--|
G|---- 2---- 2------ 2---------- 2|---------- 2-------- 2------ 0--|
D|---- 2---- 2------ 2------------|---- 3--------------------------|
A|---------- 0--------------------|------------------------------ 3|
E|--------------------------------| 1---------- 1------------------|
http://classicalguitartablature.blogspot.com/
E|-------------- 0------ 3--------| 4---- 0---------- 0------------|
B|-- 3---------- 1----------------| 3---- 3---- 3------ 3---- 3----|
G| 0 0------------ 0--------------| 4---- 4---- 4---- 4-------- 2--|
D|------------------ 2------ 2----|---- 2------ 2-------------- 2--|
A|------------ 3------------------|------------------------------ 0|
E|--------------------------------| 0---------- 0------------------|
http://classicalguitartablature.blogspot.com/
E|--------------------------------|--------------------------------|
B|---- 1---- 1-------------- 0-- 1|---- 1-------- 1------ 3-- 1----|
G|---- 2---- 2-------- 2----------| 2-- 2---- 2--------------------|
D|---- 2---- 2------------------ 3|---- 3---- 3------ 3------------|
A|------------ 0------------------|------------------------------ 5|
E|-------------------- 3----------| 1---------- 1------------------|
http://classicalguitartablature.blogspot.com/
E|---------------------- 0--------|--------------------------------|
B|------------------------------ 3|---------- 3-- 1-- 0------------|
G|-- 2---------- 2----------------| 1-------- 1-- 1------ 2---- 2--|
D|------ 3---------- 3------ 3----|---- 0---- 0-- 0----------------|
A|--------------------------------|------------------------------ 0|
E|--------------------------------| 0---------- 0------------------|
http://classicalguitartablature.blogspot.com/
E|--------------------------------|------------------ 0------------|
B|---- 1------ 1------------ 0-- 1|------ 1---- 1------------ 3-- 3|
G|------------ 2---- 2-- 0------ 2|------ 2---- 2---------------- 5|
D|------------ 2---------------- 3|------ 3---- 3------------------|
A|------------ 0---- 5------------|--------------------------------|
E|-------------------------- 0----| 1---------- 1------------------|
http://classicalguitartablature.blogspot.com/
E|--------------------------------|--------------------------------|
B|---- 3------------ 3------------|-------------- 1----------------|
G|---- 5---- 5------ 5---------- 2|------ 2---- 2---- 2-- 0-- 2-- 2|
D| 3-- 3---- 3------ 3---------- 2|------ 2---- 2------------------|
A| 5---------- 5---------- 5------|--------------------------------|
E|--------------------------------| 0---------- 0------------------|
http://classicalguitartablature.blogspot.com/
E|--------------------------------|-------------- 3---- 0----------|
B| 2-------- 3-------------- 3----|---------- 3-------------- 3-- 5|
G|------------ 0------------ 2----|------ 2---------------------- 2|
D|------------ 0------------ 3----|-- 3-------------------------- 2|
A| 0------------------------------|--------------------------------|
E|------------ 3------------ 1----|--------------------------------|
http://classicalguitartablature.blogspot.com/
E|--------------------------------|-------------- 8-- 7-- 5--------|
B|-- 3 2------ 3------------------|-------------------------- 8-- 8|
G|-- 2-------- 0------ 0---- 7----|------ 7---------------------- 5|
D|-- 2-------- 0------ 0---- 7----|-- 7------ 7------------------ 5|
A| 0-------------------------- 5--|--------------------------------|
E|------------ 3------------------|------------------------------ 8|
http://classicalguitartablature.blogspot.com/
E|--------------------------------|---------------------------- 1--|
B|------------ 8------ 8------ 8--| 8------ 6------ 5-- 6------ 1--|
G|------------ 5------ 5------ 5--| 7------ 7------ 7-- 7------ 2--|
D|------------ 5------------------|--------------------------------|
A|--------------------------------|--------------------------------|
E|-- 8---- 8-- 8-- 8-- 8-- 8-- 8--| 6-- 6-- 6-- 6-- 6-- 6-- 6------|
http://classicalguitartablature.blogspot.com/
E|--------------------------------|-------------- 8-- 7-- 5-- 3----|
B|------ 1---------- 1------ 1----|------------------------------ 8|
G|------ 2---------- 2------ 2-- 0|---------- 0------------------ 5|
D|------ 3---------- 3------ 3-- 0|---------- 0------------------ 5|
A|--------------------------------|--------------------------------|
E| 1-- 1-- 1 1---- 1-- 1 1---- 1 3|-- 3-- 3-- 3-- 3-- 3-- 3-- 3-- 8|
http://classicalguitartablature.blogspot.com/
E|--------------------------------|---------------------------- 1--|
B|------------ 8------ 8------ 8--| 8------ 6------ 5-- 6------ 1--|
G|------------ 5------ 5------ 5--| 7------ 7------ 7-- 7------ 2--|
D|------------ 5------------------|--------------------------------|
A|--------------------------------|--------------------------------|
E|-- 8---- 8-- 8-- 8-- 8-- 8-- 8--| 6-- 6-- 6-- 6-- 6-- 6-- 6------|
http://classicalguitartablature.blogspot.com/
E|--------------------------------|-------------- 8-- 7-- 5-- 3----|
B|------ 1---------- 1------ 1----|------------------------------ 8|
G|------ 2---------- 2------ 2-- 0|---------- 0--------------------|
D|------ 3---------- 3------ 3-- 0|---------- 0--------------------|
A|--------------------------------|--------------------------------|
E| 1-- 1-- 1 1---- 1-- 1 1---- 1 3|-- 3-- 3-- 3-- 3-- 3-- 3-- 3-- 8|
http://classicalguitartablature.blogspot.com/
E|-------------------------- 8-- 7|------ 4---------- 7-------- 5--|
B|---------- 8-------- 8-------- 5|------ 5-- 5------ 5-------- 5--|
G|------ 9------ 9----------------|---------- 4--------------------|
D|--10----------------------------|-- 6----------------------------|
A|--------------------------------|------------------------------ 0|
E|-------------- 8----------------| 0-------------- 0--------------|
http://classicalguitartablature.blogspot.com/
E|------------------------------ 1|------ 0------------------------|
B|---------- 5---------- 8------ 1|------ 1------ 3------ 1--------|
G|------ 5------------------------|-------------- 2---------- 5----|
D|-- 7-------------- 7------------|-- 3------ 3------ 3------------|
A|-------------- 0----------------|--------------------------------|
E|------------------------------ 1|-------------- 1----------------|
http://classicalguitartablature.blogspot.com/
E|-------------------------- 8-- 7|------------------12--13----12--|
B|---------- 5-- 5---- 8--------12|------ 9---------- 9--------10--|
G|------ 5------ 5-------------- 9|------ 9-- 9----------------12--|
D|-- 5---------- 5----------------|-- 9----------------------------|
A|--------------------------------|------------------------------ 0|
E| 8------------ 8----------------| 0-------------- 0--------------|
http://classicalguitartablature.blogspot.com/
E|----------12--------------------|--------------------------------|
B|------10------------------ 0-- 1|---- 1-------- 1------ 3-- 1----|
G|--12----------------------------| 2-- 2---- 2--------------------|
D|-------------------- 7-------- 3|---- 3---- 3------ 3------------|
A|-------------- 0-- 5------------|------------------------------ 5|
E|-------------------------- 0----| 1---------- 1------------------|
http://classicalguitartablature.blogspot.com/
E|---------------------- 0--------|--------------------------------|
B|------------------------------ 3|---------- 3-- 1-- 0------------|
G|-- 2---------- 2----------------| 1-------- 1-- 1------ 2---- 2--|
D|------ 3---------- 3------ 3----|---- 0---- 0-- 0----------------|
A|--------------------------------|------------------------------ 0|
E|--------------------------------| 0---------- 0------------------|
http://classicalguitartablature.blogspot.com/
E|--------------------------------|------------------ 0------------|
B|---- 1------ 1------------ 0-- 1|------ 1---- 1------------ 3-- 3|
G|------------ 2---- 2-- 0------ 2|------ 2---- 2---------------- 5|
D|------------ 2---------------- 3|------ 3---- 3------------------|
A|------------ 0---- 5------------|--------------------------------|
E|-------------------------- 0----| 1---------- 1------------------|
http://classicalguitartablature.blogspot.com/
E|--------------------------------|--------------------------------|
B|---- 3------------ 3------------|-------------- 1----------------|
G|---- 5---- 5------ 5---------- 2|------ 2---- 2---- 2-- 0-- 2-- 2|
D| 3-- 3---- 3------ 3---------- 2|------ 2---- 2------------------|
A| 5---------- 5---------- 5------|--------------------------------|
E|--------------------------------| 0---------- 0------------------|
http://classicalguitartablature.blogspot.com/
E|--------------------------------|-------------- 3---- 0----------|
B| 2-------- 3-------------- 3----|---------- 3-------------- 3-- 5|
G|------------ 0------------ 2----|------ 2---------------------- 2|
D|------------ 0------------ 3----|-- 3-------------------------- 2|
A| 0------------------------------|--------------------------------|
E|------------ 3------------ 1----|--------------------------------|
http://classicalguitartablature.blogspot.com/
E|--------------------------------|-------------- 8-- 7-- 5--------|
B|-- 3 2------ 3------------------|-------------------------- 8----|
G|-- 2-------- 0------ 0---- 7----|------ 7---------------------- 0|
D|-- 2-------- 0------ 0---- 7----|-- 7------ 7--------------------|
A| 0-------------------------- 5--|------------------------------ 3|
E|------------ 3------------------|--------------------------------|
http://classicalguitartablature.blogspot.com/
E| 3------------------------------|--------------------------------|
B| 1------------------------------|--------------------------------|
G|--------------------------------|--------------------------------|
D|--------------------------------|--------------------------------|
A|--------------------------------|--------------------------------|
E|--------------------------------|--------------------------------|
http://classicalguitartablature.blogspot.com/

0 ความคิดเห็น:

แสดงความคิดเห็น