To celebrate the anniversary, I am giving you (finally...) : iPhone LickByNeck !!!!!!

Marry You (BASIC)

Bruno Mars' tune fingerstyle chord melody guitar BASIC arrangement played in the key of E.

Marry You-Bruno Mars-BASIC ARRANGEMENT played in the key of D.
http://classicalguitartablature.blogspot.com/
E|--------------------------------|---- 0--------------------------|
B|------------------------ 0------|---------------- 0--------------|
G|------------ 1------------------|------------------------ 1------|
D| 2------------------------------|--------------------------------|
A|--------------------------------|--------------------------------|
E| 0------ 0------ 0------ 0------| 0------ 0------ 0------ 0------|
http://classicalguitartablature.blogspot.com/
E|--------------------------------|---- 2--------------------------|
B|------------------------ 2------|---------------- 2--------------|
G|------------ 2------------------|------------------------ 2------|
D| 4------------------------------|--------------------------------|
A|--------------------------------|--------------------------------|
E| 2------ 2------ 2------ 2------| 2------ 2------ 2------ 2------|
http://classicalguitartablature.blogspot.com/
http://classicalguitartablature.blogspot.com/
E|--------------------------------|---- 5--------------------------|
B|------------ 2---------- 5------|---------------- 5------ 2------|
G| 2------------------------------|--------------------------------|
D|---- 2--------------------------|--------------------------------|
A| 0------ 0------ 0------ 0------| 0------ 0------ 0------ 0------|
E|--------------------------------|--------------------------------|
http://classicalguitartablature.blogspot.com/
E|--------------------------------|---- 0--------------------------|
B|------------------------ 0------|---------------- 0------ 0-- 0--|
G|------------ 1------------------|---------------- 1------ 1-- 1--|
D| 2------------------------------|--------------------------------|
A|--------------------------------|--------------------------------|
E| 0------ 0------ 0------ 0------| 0------ 0------ 0------ 0------|
http://classicalguitartablature.blogspot.com/
E|---- 4-- 4-- 4------------------|-------- 4-- 4------------------|
B| 7------------------------------|-------- 7------ 7------ 5-- 5--|
G| 4---------- 4------ 4------ 4--|------------------------ 4-- 4--|
D| 6------------------ 6------ 6--|---------------------------- 6--|
A|--------------------------------|--------------------------------|
E| 0------ 0------ 0------ 0------| 0------ 0------ 0------ 0------|
http://classicalguitartablature.blogspot.com/
E| 2------ 4----------------------|-------------------- 4------ 2--|
B| 2------ 2-- 2------------------|--------------------------------|
G| 2-- 2-- 2-- 2------------------|--------------------------------|
D|-------------------- 4------ 4--|---- 4---- 4--------------------|
A|--------------------------------|--------------------------------|
E| 2------ 2------ 2------ 2------| 2------ 2------ 2------ 2------|
http://classicalguitartablature.blogspot.com/
E|--------------------------------|---------------- 2--------------|
B|---- 5---------------------- 5--| 5-- 5-- 5-- 5------ 5-- 5------|
G|---- 2--------------------------| 2------ 2-- 2-------------- 2--|
D|------------ 2------ 2----------| 2------ 2-- 2------------------|
A| 0------ 0------ 0------ 0------| 0------ 0------ 0------ 0------|
E|--------------------------------|--------------------------------|
http://classicalguitartablature.blogspot.com/
E|--------------------------------|--------------------------------|
B|--------------------------------|------------------------ 0-- 0--|
G|-------------------- 1----------|------------ 1------ 1----------|
D|---- 2------ 2-------------- 2--|---- 2--------------------------|
A|--------------------------------|--------------------------------|
E| 0------ 0------ 0------ 0------| 0------ 0------ 0------ 0------|
http://classicalguitartablature.blogspot.com/
E|---- 4-- 4-- 4------------------|-------- 4-- 4------------------|
B| 7------------------------------|-------- 7------ 7------ 5-- 5--|
G| 4---------- 4------ 4------ 4--|------------------------ 4-- 4--|
D| 6------------------ 6------ 6--|---------------------------- 6--|
A|--------------------------------|--------------------------------|
E| 0------ 0------ 0------ 0------| 0------ 0------ 0------ 0------|
http://classicalguitartablature.blogspot.com/
E| 2------ 4----------------------|-------------------- 4------ 2--|
B| 2------ 2-- 2------------------|--------------------------------|
G| 2-- 2-- 2-- 2------------------|--------------------------------|
D|-------------------- 4------ 4--|---- 4---- 4--------------------|
A|--------------------------------|--------------------------------|
E| 2------ 2------ 2------ 2------| 2------ 2------ 2------ 2------|
http://classicalguitartablature.blogspot.com/
E|--------------------------------|---------------- 2--------------|
B|---- 5---------------------- 5--| 5-- 5-- 5-- 5------ 5-- 5------|
G|---- 2--------------------------| 2------ 2-- 2-------------- 2--|
D|------------ 2------ 2----------| 2------ 2-- 2------------------|
A| 0------ 0------ 0------ 0------| 0------ 0------ 0------ 0------|
E|--------------------------------|--------------------------------|
http://classicalguitartablature.blogspot.com/
E|--------------------------------|--------------------------------|
B|--------------------------------|------------------------ 0-- 0--|
G|-------------------- 1----------|------------ 1------ 1----------|
D|---- 2------ 2-------------- 2--|---- 2--------------------------|
A|--------------------------------|--------------------------------|
E| 0------ 0------ 0------ 0------| 0------ 0------ 0------ 0------|
http://classicalguitartablature.blogspot.com/
E|--------------------------------|------------------------------ 2|
B|---------------- 4-- 4-- 5 5----|-------------- 4---- 4 5---- 5 2|
G| 4-- 4-- 6-- 6 4-------------- 4|---- 4-- 6 6------------------ 2|
D| 6------------------------------| 6------------------------------|
A|--------------------------------|--------------------------------|
E| 0------ 0------ 0------ 0------| 0------ 0---- 0-------- 0------|
http://classicalguitartablature.blogspot.com/
E|---- 4-- 2----------------------|--------------------------------|
B|-------- 2-- 5-- 2--------------|------------ 5------ 5------ 5--|
G|-------- 2---------- 2----------|--------------------------------|
D|---------------------------- 2--|---- 2--------------------------|
A|--------------------------------|--------------------------------|
E| 2------ 2------ 2------ 2------| 2------ 2------ 2------ 2------|
http://classicalguitartablature.blogspot.com/
E| 2-- 4-- 2----------------------|------------------------ 2-- 0--|
B| 2---------- 5-- 2--------------|--------------------------------|
G| 2------------------ 2------ 2--|---- 2------ 2------ 4----------|
D|--------------------------------|--------------------------------|
A| 0------ 0------ 0------ 0------| 0------ 0------ 0------ 0------|
E|--------------------------------|--------------------------------|
http://classicalguitartablature.blogspot.com/
E|--------------------------------|--------------------------------|
B|---------------------------- 0--|------------------------ 0-- 0--|
G|---- 1------ 1------ 1----------|---- 1------ 1------ 1----------|
D|---- 2------ 2------ 2----------|---- 2------ 2------------------|
A|--------------------------------|--------------------------------|
E| 0------ 0------ 0------ 0------| 0------ 0------ 0---- 0--------|
http://classicalguitartablature.blogspot.com/
E|--------------------------------|------------------------------ 2|
B|---------------- 4-- 4-- 5 5----|-------------- 4---- 4 5---- 5 2|
G| 4-- 4-- 6-- 6 4-------------- 4|---- 4-- 6 6------------------ 2|
D| 6------------------------------| 6------------------------------|
A|--------------------------------|--------------------------------|
E| 0------ 0------ 0------ 0------| 0------ 0---- 0-------- 0------|
http://classicalguitartablature.blogspot.com/
E|---- 4-- 2----------------------|--------------------------------|
B|-------- 2-- 5-- 2--------------|------------ 5------ 5------ 5--|
G|-------- 2---------- 2----------|--------------------------------|
D|---------------------------- 2--|---- 2--------------------------|
A|--------------------------------|--------------------------------|
E| 2------ 2------ 2------ 2------| 2------ 2------ 2------ 2------|
http://classicalguitartablature.blogspot.com/
E| 2-- 4-- 2----------------------|------------------------ 2---- 0|
B| 2---------- 5-- 2--------------|--------------------------------|
G| 2------------------ 2------ 2--|---- 2------ 2------ 4----------|
D|--------------------------------|--------------------------------|
A| 0------ 0------ 0------ 0------| 0------ 0------ 0------ 0------|
E|--------------------------------|--------------------------------|
http://classicalguitartablature.blogspot.com/
E|--------------------------------|--------------------------------|
B|---------------------------- 0--|-------------------- 0-- 2------|
G|---- 1------ 1------ 1----------|---- 1------ 1------------------|
D|---- 2------ 2------------------|---- 2--------------------------|
A|--------------------------------|--------------------------------|
E| 0------ 0------ 0------ 0------| 0------ 0------ 0------ 0------|
http://classicalguitartablature.blogspot.com/
E| 4------------------------------|------------------------------ 5|
B| 5------ 7------ 5------ 4-- 5--|-------------------- 5-- 5---- 2|
G| 4------ 4------ 4------ 4-- 4--|-------------------- 4-- 4------|
D|------------ 6------ 6------ 6--|---- 6------ 6------------------|
A|--------------------------------|--------------------------------|
E| 0------ 0------ 0------ 0------| 0------ 0------ 0------ 0------|
http://classicalguitartablature.blogspot.com/
E|-------- 4------ 2--------------|--------------------------------|
B|-------- 2---------- 5------ 2--|-------------------- 5-- 5------|
G|---- 2------ 2------------------|------------------------ 2------|
D|--------------------------------|---- 2------ 2------------------|
A|--------------------------------|--------------------------------|
E| 2------ 2------ 2------ 2------| 2------ 2------ 2------ 2------|
http://classicalguitartablature.blogspot.com/
E| 5------ 4---- 2----------------|--------------------------------|
B| 2------ 2---------- 5------ 2--|------------------------ 5-- 7--|
G|---- 2------ 2------ 2------ 2--|-------------------- 4------ 4--|
D|--------------------------------|---- 2------ 2-------------- 6--|
A| 0------ 0------ 0------ 0------| 0------ 0------ 0------ 0------|
E|--------------------------------|--------------------------------|
http://classicalguitartablature.blogspot.com/
E|---- 4--------------------------|---- 4--------------------------|
B|---------------------------- 7--|--------------------------------|
G|------------ 4------ 4-- 6------|------------ 4------ 4-- 6-- 4--|
D|--------------------------------|--------------------------------|
A|--------------------------------|--------------------------------|
E| 0------ 0------ 0------ 0------| 0------ 0------ 0------ 0------|
http://classicalguitartablature.blogspot.com/
E|---- 4-- 4-- 4------------------|-------- 4-- 4------------------|
B| 7------------------------------|-------- 7------ 7------ 5-- 5--|
G| 4---------- 4------ 4------ 4--|------------------------ 4-- 4--|
D| 6------------------ 6------ 6--|---------------------------- 6--|
A|--------------------------------|--------------------------------|
E| 0------ 0------ 0------ 0------| 0------ 0------ 0------ 0------|
http://classicalguitartablature.blogspot.com/
E| 2------ 4----------------------|-------------------- 4------ 2--|
B| 2------ 2-- 2------------------|--------------------------------|
G| 2-- 2-- 2-- 2------------------|--------------------------------|
D|-------------------- 4------ 4--|---- 4---- 4--------------------|
A|--------------------------------|--------------------------------|
E| 2------ 2------ 2------ 2------| 2------ 2------ 2------ 2------|
http://classicalguitartablature.blogspot.com/
E|--------------------------------|---------------- 2--------------|
B|---- 5---------------------- 5--| 5-- 5-- 5-- 5------ 5-- 5------|
G|---- 2--------------------------| 2------ 2-- 2-------------- 2--|
D|------------ 2------ 2----------| 2------ 2-- 2------------------|
A| 0------ 0------ 0------ 0------| 0------ 0------ 0------ 0------|
E|--------------------------------|--------------------------------|
http://classicalguitartablature.blogspot.com/
E|--------------------------------|--------------------------------|
B|--------------------------------|------------------------ 0-- 0--|
G|-------------------- 1----------|------------ 1------ 1----------|
D|---- 2------ 2-------------- 2--|---- 2--------------------------|
A|--------------------------------|--------------------------------|
E| 0------ 0------ 0------ 0------| 0------ 0------ 0------ 0------|
http://classicalguitartablature.blogspot.com/
E|---- 4-- 4-- 4------------------|-------- 4-- 4------------------|
B| 7------------------------------|-------- 7------ 7------ 5-- 5--|
G| 4---------- 4------ 4------ 4--|------------------------ 4-- 4--|
D| 6------------------ 6------ 6--|---------------------------- 6--|
A|--------------------------------|--------------------------------|
E| 0------ 0------ 0------ 0------| 0------ 0------ 0------ 0------|
http://classicalguitartablature.blogspot.com/
E| 2------ 4----------------------|-------------------- 4------ 2--|
B| 2------ 2-- 2------------------|--------------------------------|
G| 2-- 2-- 2-- 2------------------|--------------------------------|
D|-------------------- 4------ 4--|---- 4---- 4--------------------|
A|--------------------------------|--------------------------------|
E| 2------ 2------ 2------ 2------| 2------ 2------ 2------ 2------|
http://classicalguitartablature.blogspot.com/
E|--------------------------------|---------------- 2--------------|
B|---- 5---------------------- 5--| 5-- 5-- 5-- 5------ 5-- 5------|
G|------------ 2------ 2----------|--------------------------------|
D|--------------------------------|---------------------------- 2--|
A| 0------ 0------ 0------ 0------| 0------ 0------ 0------ 0------|
E|--------------------------------|--------------------------------|
http://classicalguitartablature.blogspot.com/
E|--------------------------------|---- 0------ 2------ 0------ 7--|
B|--------------------------------|---------------------------- 5--|
G|------------ 1------ 1------ 1--|---------------------------- 4--|
D|---- 2--------------------------|--------------------------------|
A|--------------------------------|--------------------------------|
E| 0------ 0------ 0------ 0------| 0------ 0------ 0------ 0------|
http://classicalguitartablature.blogspot.com/
E|---------------------------- 4--|-------------------- 7------ 9--|
B|--------------------------------|--------------------------------|
G|---- 4------ 4------ 4----------|---- 4------ 4------------------|
D|---- 6------ 6------ 6----------|---- 6--------------------------|
A|--------------------------------|--------------------------------|
E| 0------ 0------ 0------ 0------| 0------ 0------ 0------ 0------|
http://classicalguitartablature.blogspot.com/
E|--------------------------------|--------------------------------|
B|--------------------------------|------------ 9---------- 9------|
G|---- 9------ 9------ 9------ 9--|---- 9--------------11----------|
D|----11------11------11------11--|--------------------11----------|
A| 9------ 9------ 9------ 9------| 9------ 9------ 9------ 9------|
E|--------------------------------|--------------------------------|
http://classicalguitartablature.blogspot.com/
E| 2------------------------------|------------ 4------ 2-- 4------|
B| 2------ 5------ 2--------------|--------------------------------|
G|--------------------------------|--------------------------------|
D|---- 2------ 2------ 2------ 2--|---- 2--------------------------|
A| 0------ 0------ 0------ 0------| 0------ 0------ 0------ 0------|
E|--------------------------------|--------------------------------|
http://classicalguitartablature.blogspot.com/
E|-------- 0-------------- 0------|-------- 0-- 2------ 0------ 7--|
B| 0-------------- 2---- 0--------| 2---- 0-------------------- 5--|
G|--------------------------------|---------------------------- 4--|
D|---- 2------ 2------ 2------ 2--|---- 2--------------------------|
A|--------------------------------|--------------------------------|
E| 0------ 0------ 0------ 0------| 0------ 0------ 0------ 0------|
http://classicalguitartablature.blogspot.com/
E|---------------------------- 4--|-------------------- 7------ 9--|
B|--------------------------------|--------------------------------|
G|---- 4------ 4------ 4----------|---- 4------ 4------------------|
D|---- 6------ 6------ 6----------|---- 6--------------------------|
A|--------------------------------|--------------------------------|
E| 0------ 0------ 0------ 0------| 0------ 0------ 0------ 0------|
http://classicalguitartablature.blogspot.com/
E|--------------------------------|--------------------------------|
B|--------------------------------|------------ 9---------- 9------|
G|---- 9------ 9------ 9------ 9--|---- 9--------------11----------|
D|----11------11------11------11--|--------------------11----------|
A| 9------ 9------ 9------ 9------| 9------ 9------ 9------ 9------|
E|--------------------------------|--------------------------------|
http://classicalguitartablature.blogspot.com/
E| 2------------------------------|------------ 4------ 7-- 4------|
B| 2------ 5------ 2--------------|------------ 5------ 5----------|
G|-------- 2------ 2--------------|------------ 6------ 6-- 6------|
D|------------ 2------ 2------ 2--|---- 2--------------------------|
A| 0------ 0------ 0------ 0------| 0------ 0------ 0------ 0------|
E|--------------------------------|--------------------------------|
http://classicalguitartablature.blogspot.com/
E|--------------------------------|------------ 7------------------|
B| 7------ 5-------------- 5------|--------------------------------|
G| 4-------------- 6--------------| 6---------------------- 4-- 4--|
D|---- 6------ 6------ 6------ 6--|---- 6-------------- 6----------|
A|--------------------------------|--------------------------------|
E| 0------ 0------ 0------ 0------| 0------ 0------ 0------ 0------|
http://classicalguitartablature.blogspot.com/
E|---- 4-- 4-- 4------------------|-------- 4-- 4------------------|
B| 7-------------------------- 7--|---------------- 7------ 5-- 5--|
G| 4---------------------- 4------|--------------------------------|
D| 6------------------ 6----------| 6------------------------------|
A|--------------------------------|--------------------------------|
E| 0------------------------------|--------------------------------|
http://classicalguitartablature.blogspot.com/
E| 2------ 4----------------------|---------------------- 4---- 2--|
B| 2---------- 2------------------|--------------------------------|
G| 2------------------ 2------ 2--|------------ 2------------------|
D|------------------------ 2------|-------- 2----------------------|
A|--------------------------------|--------------------------------|
E| 2------------------------------| 2------------------------------|
http://classicalguitartablature.blogspot.com/
E|--------------------------------|------------------------------ 2|
B|---- 5---------------- 5--------| 5-- 5------ 5-- 5------ 5------|
G|------------------ 2------ 2----|------ 2---- 2---- 2------------|
D|------------ 2------------------|------ 2---- 2---- 2------------|
A| 0------------------------------|--------------------------------|
E|--------------------------------|--------------------------------|
http://classicalguitartablature.blogspot.com/
E|--------------------------------|--------------------------------|
B|-------- 5-------------- 5------|--------------------------------|
G|--------------------------------|--------------------------------|
D|--------------------------------|--------------------------------|
A|--------------------------------|--------------------------------|
E|--------------------------------|---------------------- 0--------|
http://classicalguitartablature.blogspot.com/

0 ความคิดเห็น:

แสดงความคิดเห็น