To celebrate the anniversary, I am giving you (finally...) : iPhone LickByNeck !!!!!!

More Than A Feeling (BASIC)

Boston's tune fingerstyle chord melody guitar BASIC arrangement played in the key of D.

More Than A Feeling-Boston-BASIC Arrangement played in the key of D.
http://classicalguitartablature.blogspot.com/
E|------------ 3---- 2------------|--------------------------------|
B|---- 3------------------ 3------|-------- 3---------- 3---- 3----|
G|-------- 2------------------ 2--|---- 0---------- 0--------------|
D|--------------------------------|--------------------------------|
A| 5------------------------------| 3---------- 2---------------- 5|
E|--------------------------------|---------------------- 3--------|
http://classicalguitartablature.blogspot.com/
E|------------ 3---- 2------------|--------------------------------|
B|---- 3---------------- 3--------|-------- 3---------- 3----------|
G|------ 2-------------------- 2--|-- 0------------ 0---------- 0--|
D|--------------------------------|--------------------------------|
A|--------------------------------| 3---------- 2------------------|
E|--------------------------------|------------------------ 3------|
http://classicalguitartablature.blogspot.com/
http://classicalguitartablature.blogspot.com/
E|--------------------------------|--------------------------------|
B|------------ 0------------------|-------------------- 3------ 3--|
G| 2-- 2-- 2---------- 2------ 2--| 0-- 0-------- 0----------------|
D| 4---------------------- 4------| 2---- 4---- 0------------------|
A| 5-------------- 5--------------| 3---------- 2------------------|
E|--------------------------------|------------------------ 3------|
http://classicalguitartablature.blogspot.com/
E|--------------------------------|--------------------------------|
B|------------ 0------------------| 1-- 3------ 0------------------|
G| 2-- 2-- 2---------- 2------ 2--| 0---------- 0-------------- 0--|
D| 4------------------------------| 2------ 2---------- 0----------|
A| 5---------------------- 5------| 3---------- 2------------------|
E|--------------------------------|------------------------ 3------|
http://classicalguitartablature.blogspot.com/
E|--------------------------------|--------------------------------|
B|------------ 0------------------|--------------------------------|
G| 2---- 2------------ 2------ 0--| 2-- 0-------------- 0----------|
D| 4------------------------------| 2------------------------ 4----|
A| 5---------------------- 5------| 3---------- 2------------------|
E|--------------------------------|---------------------- 3--------|
http://classicalguitartablature.blogspot.com/
E|------------10------------------|---- 5---- 7--------------------|
B| 7-- 8--10------------ 7-- 7-- 8|---------- 8---------------- 8--|
G| 7---------------------------- 5|------------------------ 5------|
D| 7---------------- 7---------- 5|-------------------- 5----------|
A|--------------------------------|--------------------------------|
E|10----------10------------------| 8------------------------------|
http://classicalguitartablature.blogspot.com/
E|--------------------------------| 8-------------- 7---- 7-- 8----|
B|---------------- 5--------------| 5-------------- 8--------------|
G|-------- 7---------- 7------ 7--| 5------ 5------ 7-- 7----------|
D|---- 5------ 5---------- 5------|---- 7------ 7------------------|
A|--------------------------------|----------------10--------------|
E| 7------------------------------| 5------------------------------|
http://classicalguitartablature.blogspot.com/
E| 5---------- 5-- 7-- 7-- 5-- 5--| 3---- 3---------------------- 0|
B| 7------ 7------ 7------ 7-- 7--| 3---- 3---------- 1---- 1---- 0|
G|---- 7---------- 7-- 7-- 7-- 7--| 0------ 0-------- 0---- 0------|
D|--------------------------------|------------------ 2---- 2------|
A| 5-------------- 5--------------|-------------------- 3-- 3------|
E|--------------------------------| 3------ 3---- 3----------------|
http://classicalguitartablature.blogspot.com/
E|------ 0------------------------|------------------------------ 0|
B|------ 0---------- 3---- 3------|------------------ 1---- 1---- 0|
G|------ 0---------- 2---- 2---- 0|-------- 0-------- 0---- 0---- 0|
D|------------------ 4---- 4---- 0|-------- 0-------- 2---- 2------|
A|------------------ 5---- 5------|-------------------- 3-- 3------|
E| 0------ 0---- 0----------------| 3------ 3---- 3----------------|
http://classicalguitartablature.blogspot.com/
E|------ 0---------------------- 3|---- 3 3---- 2------ 3----------|
B|------ 0---------- 3---- 3---- 3|---- 3-- 3-- 3------ 3----------|
G|------ 0---------- 2---- 2---- 0|---- 0-- 0-- 0------------------|
D|------------------ 4---- 4------|--------------------------------|
A|------------------ 5---- 5------|-------------------- 3-- 3------|
E| 0------ 0-- 0------------------| 3------ 3---- 3----------------|
http://classicalguitartablature.blogspot.com/
E| 3-- 3-- 3-- 3------ 3-- 5------| 7-- 8-- 7---- 5---- 3----------|
B| 3-- 3-- 3-- 3------------------|--------------------------------|
G| 0-- 0-- 0-- 0------------------|--------------------------------|
D|--------------------------------|--------------------------------|
A|------------------ 5---- 5------|-------------------- 3-- 3------|
E| 0------ 0----------------------| 3------ 3---- 3----------------|
http://classicalguitartablature.blogspot.com/
E| 3-- 3-- 3-- 3------ 5----------| 3-- 3-- 3-- 2---- 3------------|
B|--------------------------------| 3-- 3-- 3-- 3---- 3------------|
G|--------------------------------| 0-- 0-- 0-- 0------------------|
D|--------------------------------|--------------------------------|
A|-------------------- 5-- 5------|-------------------- 3-- 3------|
E| 0------ 0---- 0----------------| 3------ 3---- 3----------------|
http://classicalguitartablature.blogspot.com/
E| 3-- 3-- 3-- 3---- 3---- 5-- 7--|---- 8-- 7-- 5------ 3---- 5----|
B|---------- 2--------------------|--------------------------------|
G|--------------------------------|--------------------------------|
D|--------------------------------|--------------------------------|
A|-------------------- 5-- 5------|-------------------- 3-- 3------|
E| 0------ 0---- 0----------------| 3------ 3---- 3----------------|
http://classicalguitartablature.blogspot.com/
E| 3------------------------------|---------------- 2-- 3------ 2--|
B| 4---------- 4------------------|-------- 0------------------ 2--|
G| 3------ 3---------- 3------ 3--|------------ 0-------------- 0--|
D|---- 5------------------ 5------|---- 2--------------------------|
A| 6------------------------------|--------------------------------|
E|--------------------------------| 0------------------------------|
http://classicalguitartablature.blogspot.com/
E|---- 0-- 0------ 0-- 0----------|--------------------------------|
B|---- 2-- 2------ 2-- 2-- 3-- 3--|------------ 3------------------|
G|---- 0-- 0------ 0--------------|-------- 0-------- 0-------- 0--|
D|--------------------------------|---- 0------------------ 0------|
A| 0------------------------------|--------------------------------|
E|--------------------------------| 3------------------------------|
http://classicalguitartablature.blogspot.com/
E|--------------------------------|--------------------------------|
B|--------------------------------| 3------------------------------|
G|-------- 0-------- 2------------| 2------------------------------|
D|---- 0---------- 0-------- 2----| 4------------------------------|
A|--------------------------------| 5-------------------------- 0--|
E| 3---------- 2-------- 0--------|--------------------------------|
http://classicalguitartablature.blogspot.com/
E|--------------------------------|------------ 3-- 2--------------|
B|-------- 3---------- 3------ 3--|---- 3-------------- 3----------|
G|---- 0---------- 0---------- 0--|-------- 2-------------- 2------|
D|--------------------------------|--------------------------------|
A| 3---------- 2------------------| 5-------------------------- 5--|
E|------------------------ 3------|--------------------------------|
http://classicalguitartablature.blogspot.com/
E|--------------------------------|------------ 3-- 2--------------|
B|-------- 3---------- 3------ 3--|---- 3-------------- 3----------|
G|---- 0---------- 0--------------|-------- 2-------------- 2------|
D|--------------------------------|--------------------------------|
A| 3---------- 2------------------| 5-------------------------- 5--|
E|------------------------ 3------|--------------------------------|
http://classicalguitartablature.blogspot.com/
E|--------------------------------|--------------------------------|
B|-------- 3---------- 3------ 3--|-- 3----------------------------|
G|---- 0---------- 0--------------| 2------------------------------|
D|--------------------------------| 4------------------------------|
A| 3---------- 2------------------| 5------------------------------|
E|------------------------ 3------|--------------------------------|
http://classicalguitartablature.blogspot.com/

0 ความคิดเห็น:

แสดงความคิดเห็น