To celebrate the anniversary, I am giving you (finally...) : iPhone LickByNeck !!!!!!

Roxanne (BASIC)

The Police's tune fingerstyle chord melody guitar BASIC arrangement played in the key of Gm.

Roxanne-The police-BASIC ARRANGEMENT played in the key of Gm.
http://classicalguitartablature.blogspot.com/
E| 3------ 3------ 3------ 3------| 3------ 3------ 3------ 3------|
B| 3------ 3------ 3------ 3------| 3------ 3------ 3------ 3------|
G| 3------ 3------ 3------ 3------| 3------ 3------ 3------ 3------|
D|--------------------------------|--------------------------------|
A|--------------------------------|--------------------------------|
E|--------------------------------|--------------------------------|
http://classicalguitartablature.blogspot.com/
E| 3------ 3------ 3------ 3------| 1------ 1------ 1------ 1------|
B| 3------ 3------ 3------ 3------| 1------ 1------ 1------ 1------|
G| 3------ 3------ 3------ 3------| 2------ 2------ 2------ 2------|
D|--------------------------------|--------------------------------|
A|--------------------------------|--------------------------------|
E|---- 3-- 3----------------------|---- 1-- 1----------------------|
http://classicalguitartablature.blogspot.com/
http://classicalguitartablature.blogspot.com/
E| 3------ 3------ 3------ 3------|--------------------------------|
B| 4------ 4------ 4------ 4------| 6------ 6------ 6------ 6------|
G| 3------ 3------ 3------ 3------| 7------ 7------ 7------ 7------|
D|--------------------------------| 7------ 7------ 7------ 7------|
A|---- 6-- 6----------------------|---- 5-- 5----------------------|
E|--------------------------------|--------------------------------|
http://classicalguitartablature.blogspot.com/
E| 3------ 3------ 3------ 3------| 1------ 1------ 1--------------|
B| 4------ 4------ 4------ 4------| 1------ 1------ 1------ 1-- 3--|
G| 5------ 5------ 5------ 5------| 3------ 3------ 3------ 3-- 0--|
D|--------------------------------|------------------------ 1-- 0--|
A|---- 3-- 3----------------------|--------------------------------|
E|--------------------------------|---- 1-- 1-------------- 1-- 3--|
http://classicalguitartablature.blogspot.com/
E|--------------------------------|-------------------- 3----------|
B|--------------------------------|--------------------------------|
G|--------------------------------|--------------------------------|
D|--------------------------------|--------------------------------|
A|--------------------------------|--------------------------------|
E|--------------------------------|--------------------------------|
http://classicalguitartablature.blogspot.com/
E|--------------------------------|------------------------------ 5|
B| 3------------------------------|--------------11----10---- 8----|
G| 3------ 3------ 3------ 3------|10------10------10------10------|
D| 5------ 5------ 5------ 5------|10------10------10------10------|
A|--------------------------------|---- 8-- 8----------------------|
E|---- 3-- 3----------------------|--------------------------------|
http://classicalguitartablature.blogspot.com/
E|-------- 5-------- 5------------|--------------------------------|
B|-- 8-------- 8---------- 6------|--------------------------------|
G| 8------ 8------ 8------ 8------| 7------ 7------ 7------ 7------|
D| 8------ 8------ 8------ 8------| 7------ 7------ 7------ 7------|
A|---- 6-- 6----------------------|---- 5-- 5----------------------|
E|--------------------------------|--------------------------------|
http://classicalguitartablature.blogspot.com/
E|---------------------- 3---- 1--|---- 3-------- 1-- 3-- 3--------|
B|------------ 4-- 4--------------| 1------ 1------ 1------ 1------|
G| 5------ 5------ 5------ 5------| 3------ 3------ 3------ 310----|
D| 5------ 5------ 5------ 5------| 1------ 1------ 1--------12----|
A|---- 3-- 3----------------------|----------------------------10--|
E|--------------------------------|---- 1-- 1-------------- 1------|
http://classicalguitartablature.blogspot.com/
E|10------------------------------|-------------------- 6----------|
B|------13----11------------------|--------------------------------|
G|------------------12--12--10--12|--------------------------------|
D|--------------------------------|--------------------------------|
A|--------------------------------|--------------------------------|
E|--------------------------------|--------------------------------|
http://classicalguitartablature.blogspot.com/
E|-- 3----------------------------|-------------- 1---- 3-- 3---- 1|
B|------------------------------ 1|-------- 1------ 1------ 1------|
G| 3------ 3------ 3------ 3---- 2|-------- 2------ 2------ 2------|
D| 5------ 5------ 5------ 5---- 3|-------- 3------ 3------ 3------|
A|--------------------------------|--------------------------------|
E|---- 3-- 3----------------------|---- 1-- 1----------------------|
http://classicalguitartablature.blogspot.com/
E|-------- 5---- 6-------- 5------|--------------------------------|
B|-- 8---------------- 8----------|--------------------------------|
G| 8------ 8------ 8------ 8------| 7------ 7------ 7------ 7------|
D| 8------ 8------ 8------ 8------| 7------ 7------ 7------ 7------|
A|---- 6-- 6----------------------|---- 5-- 5----------------------|
E|--------------------------------|--------------------------------|
http://classicalguitartablature.blogspot.com/
E|------------ 6---- 5-- 5---- 3--| 5 3---------------- 1-- 3-- 6--|
B|--------------------------------| 1------ 1------ 1------ 1-- 3--|
G| 5------ 5------ 5------ 5------| 3------ 3------ 3------ 3------|
D| 5------ 5------ 5------ 5------| 1------ 1------ 1--------------|
A|---- 3-- 3----------------------|--------------------------------|
E|--------------------------------|---- 1-- 1-------------- 1-- 3--|
http://classicalguitartablature.blogspot.com/
E|------ 5---- 3---- 5-------- 3--| 3---- 3------------ 8----------|
B|---------------------- 6--------|--------------------------------|
G|--------------------------------|------------------------------ 8|
D|--------------------------------|------------------------------10|
A|--------------------------------|--------------------------------|
E|--------------------------------|--------------------------------|
http://classicalguitartablature.blogspot.com/
E|--------------------------------|-------------- 1---- 3-- 3-- 1--|
B|-- 8-------------------------- 1|-------- 1------ 1------ 1------|
G|-------- 8------ 8------ 8---- 3|-------- 3------ 3------ 3------|
D|--------10------10------10------|---- 1-- 1------ 1------ 1------|
A|--------------------------------|--------------------------------|
E|---- 8-- 8----------------------|-- 1---- 1----------------------|
http://classicalguitartablature.blogspot.com/
E| 3-- 3------ 3-------- 6--------|-------------------- 8----------|
B| 3------ 6------ 3------ 3------| 3------ 3------ 3------ 3------|
G| 3------ 3------ 3------ 3------| 3------ 3------ 3------ 3---- 8|
D| 5------ 5------ 5------ 5------| 5------ 5------ 5------ 5----10|
A|--------------------------------|--------------------------------|
E|---- 3-- 3----------------------|---- 3-- 3----------------------|
http://classicalguitartablature.blogspot.com/
E|--------------------------------|-------------- 1-- 3-- 3-- 1-- 3|
B|---- 8--------------------------| 1------ 1------ 1---- 1---- 3--|
G|-------- 8------ 8------ 8------| 3------ 3------ 3---- 3---- 0--|
D|--------10------10------10------| 1------ 1------ 1------ 1-- 0--|
A|--------------------------------|--------------------------------|
E|---- 8-- 8----------------------|---- 1-- 1---- 1-------- 1-- 3--|
http://classicalguitartablature.blogspot.com/
E|-- 3------ 3---------- 3--------|--------------------------------|
B|------ 6------------------------|-------------------------- 6----|
G|--------------------------------|-------------------- 8----------|
D|--------------------------------|--------------------------------|
A|--------------------------------|--------------------------------|
E|------------------------------ 3|---- 3-- 3-- 3-- 3-- 8------ 6--|
http://classicalguitartablature.blogspot.com/
E|10-- 8-- 6-- 8------ 6----------|--------------------------------|
B| 6-- 6-- 6-- 6------ 6----------| 6-- 6-- 6-- 6-- 6-- 4----------|
G|--------------------------------| 7-- 7-- 7-- 7------ 3------10--|
D|--------------------------------| 8-- 8-- 8-- 8-- 8-- 5----------|
A|--------------------------------|-------------------- 6------ 8--|
E|---- 6-- 6-- 6-- 6-- 6-- 6-- 6--| 6-- 6-- 6-- 6-- 6--------------|
http://classicalguitartablature.blogspot.com/
E|10-- 8------ 8---------- 8------|------------------------------10|
B|--------1110------11------------|--------------------------------|
G|--------------------------------| 9--10--10--10--10--10------12--|
D|--------------------------------| 9--10--10--10--10--10------12--|
A|---- 8-- 8-- 8-- 7-- 8-- 8-- 8--| 7-- 8-- 8-- 8-- 8-- 8----10----|
E|--------------------------------|--------------------------------|
http://classicalguitartablature.blogspot.com/
E|--------------------------------|------------------------------10|
B|--13----11--13------11----------|-------------------------- 6----|
G|10------------------------------|1212----1212----12-- 8----------|
D|--------------------------------|1212----1212----12--------------|
A|--10--10--10--10--10----1010----|10--10--10--10--10--------------|
E|--------------------------------|-------------------- 8------ 6--|
http://classicalguitartablature.blogspot.com/
E|-- 8-- 6-- 8-------- 6----------|--------------------------------|
B|-- 6-- 6-- 6-------- 6----------| 6-- 6-- 6-- 6-- 6-- 4----------|
G|------ 7-- 7-------- 7----------| 7-- 7-- 7------ 7-- 3------10--|
D|--------------------------------| 8-- 8-- 8-- 8-- 8-- 5----------|
A|--------------------------------|-------------------- 6------ 8--|
E|---- 6-- 6-- 6-- 6-- 6-- 6-- 6--| 6-- 6-- 6-- 6-- 6--------------|
http://classicalguitartablature.blogspot.com/
E|10-- 8------ 8---------- 8------|--------------------------------|
B|--------1110------11------------|------------------11-------- 3--|
G|--------------------------------| 9--10--10--10--10--10------ 0--|
D|--------------------------------| 9--10--10--10--10--10----------|
A|---- 8-- 8-- 8-- 7-- 8-- 8-- 8--| 7-- 8-- 8-- 8-- 8-- 8----------|
E|--------------------------------|---------------------------- 3--|
http://classicalguitartablature.blogspot.com/
E|--------------------------------|--------------------------------|
B|--------------------------------|--------------------------------|
G|--------------------------------|--------------------------------|
D|--------------------------------|--------------------------------|
A|--------------------------------|--------------------------------|
E|--------------------------------|---------------------------- 1--|
http://classicalguitartablature.blogspot.com/
E| 3------ 3------ 3------ 3------| 3------ 3------ 3------ 3------|
B| 3------ 3------ 3------ 3------| 3------ 3------ 3------ 3------|
G| 3------ 3------ 3------ 3------| 3------ 3------ 3------ 3------|
D|--------------------------------|--------------------------------|
A|--------------------------------|--------------------------------|
E| 3-------------------------- 3--| 1-------------------------- 1--|
http://classicalguitartablature.blogspot.com/
E| 3------ 3------ 3------ 3------| 3------ 3------ 3------ 3------|
B| 3------ 3------ 3------ 3------| 3------ 3------ 3------ 3------|
G| 3------ 3------ 3------ 3------| 3------ 3------ 3------ 3-- 3--|
D|--------------------------------|--------------------------------|
A|--------------------------------|--------------------------------|
E|-- 3------------------------ 3--| 1------------------------------|
http://classicalguitartablature.blogspot.com/
E|---------------------- 3--------|--------------------------------|
B|------ 3-- 3-- 6----------------|--------------------------11----|
G| 5-- 5-- 3------ 3------ 3------|10------10------10------10------|
D| 5------ 5------ 5------ 5------|10------10------10------10------|
A|--------------------------------|---- 8-- 8----------------------|
E|---- 3-- 3----------------------|--------------------------------|
http://classicalguitartablature.blogspot.com/
E| 5-- 6-- 5-- 6---- 5---- 8------|---------------------------- 3--|
B|--------------------------------|--------------------------------|
G| 8------ 8------ 8------ 8------| 7------ 7------ 7------ 7------|
D| 8------ 8------ 8------ 8------| 7------ 7------ 7------ 7------|
A|---- 6-- 6----------------------|---- 5-- 5----------------------|
E|--------------------------------|--------------------------------|
http://classicalguitartablature.blogspot.com/
E| 6-- 5---- 3-- 5---- 3-- 6---- 5|-- 5---------------- 3-- 3-- 6--|
B|--------------------------------| 1------ 1------ 1------ 1-- 3--|
G| 5------ 5------ 5------ 5------| 3------ 3------ 3------ 3------|
D| 5------ 5------ 5------ 5------| 1------ 1------ 1--------------|
A|---- 3-- 3----------------------|--------------------------------|
E|--------------------------------|---- 1-- 1-------------- 1-- 3--|
http://classicalguitartablature.blogspot.com/
E|-- 5---- 3------ 3---- 3--------|--------------------------------|
B|------------ 6-------------- 3--|-------------------------- 3----|
G|--------------------------------|--------------------------------|
D|--------------------------------|--------------------------------|
A|--------------------------------|--------------------------------|
E|--------------------------------|--------------------------------|
http://classicalguitartablature.blogspot.com/
E| 6 6-- 5---- 5-- 3------ 6------| 1------ 1------ 1------ 1------|
B|--------------------------------| 1------ 1------ 1------ 1-- 3--|
G| 3------ 3------ 3------ 3------| 2------ 2------ 2------ 2------|
D| 5------ 5------ 5------ 5------|--------------------------------|
A|--------------------------------|--------------------------------|
E|---- 3-- 3----------------------|---- 1-- 1----------------------|
http://classicalguitartablature.blogspot.com/
E| 6-- 6-- 5-- 5---------- 8------|--------------------------------|
B|---------------- 8--------------|--------------------------------|
G| 8------ 8------ 8------ 8------| 7------ 7------ 7------ 7------|
D| 8------ 8------ 8------ 8------| 7------ 7------ 7------ 7------|
A|---- 6-- 6----------------------|---- 5-- 5----------------------|
E|--------------------------------|--------------------------------|
http://classicalguitartablature.blogspot.com/
E|---- 8--------------------------|------------------------------ 3|
B|----------11-- 8----11-- 8----10|----11--10----10---- 8------ 3--|
G| 8------ 8------ 8------ 8------|10------10------10------10------|
D|10------10------10------10------|10------10------10------10------|
A|--------------------------------|---- 8-- 8-------------- 8------|
E|-- 8---- 8----------------------|---------------------------- 3--|
http://classicalguitartablature.blogspot.com/
E|-------------- 3----------------|-------------------- 8----------|
B|--------------------------------|--------------------------------|
G|--------------------------------|------------------------------ 8|
D|--------------------------------|------------------------------10|
A|--------------------------------|--------------------------------|
E|--------------------------------|--------------------------------|
http://classicalguitartablature.blogspot.com/
E|--------------------------------|-------------- 1-- 3---- 3-- 1--|
B|---- 8------------------------ 1|-------- 1------ 1------ 1------|
G|-------- 8------ 8------ 8---- 3|-------- 3------ 3------ 3------|
D|--------10------10------10------|---- 1-- 1------ 1------ 1------|
A|--------------------------------|--------------------------------|
E|---- 8-- 8----------------------|-- 1---- 1----------------------|
http://classicalguitartablature.blogspot.com/
E| 6-- 6-- 3-- 6---------- 3------|-------------------- 8----------|
B| 3------ 3------ 3-- 6-- 3------| 3------ 3------ 3------ 3------|
G| 3------ 3------ 3------ 3------| 3------ 3------ 3------ 3---- 8|
D| 5------ 5------ 5------ 5------| 5------ 5------ 5------ 5----10|
A|--------------------------------|--------------------------------|
E|---- 3-- 3----------------------|---- 3-- 3----------------------|
http://classicalguitartablature.blogspot.com/
E|--------------------------------|-------------- 1-- 3-- 3-- 1-- 6|
B|---- 8--------------------------| 1------ 1------ 1---- 1---- 3--|
G|-------- 8------ 8------ 8------| 3------ 3------ 3---- 3---- 0--|
D|--------10------10------10------| 1------ 1------ 1------ 1-- 0--|
A|--------------------------------|--------------------------------|
E|---- 8-- 8----------------------|---- 1-- 1---- 1-------- 1-- 3--|
http://classicalguitartablature.blogspot.com/
E|------------ 3---------- 3------|--------------10-- 8-- 6------10|
B|-- 6-- 6------------------------|-------------------------- 8-- 6|
G|--------------------------------|------------------------------ 7|
D|--------------------------------|--------------------------------|
A|--------------------------------|----------------10--------------|
E|--------------------------------| 3-- 3-- 3-- 3------ 8------ 6--|
http://classicalguitartablature.blogspot.com/
E|-- 8-- 6---- 6---------- 6------|--------------------------------|
B|-- 6-- 6---- 6---- 8-- 6--------| 6-- 6-- 6-- 6 6----------------|
G|-- 7-- 7---- 7------------------| 7-- 7-- 7-- 7-- 7-- 8------10--|
D|--------------------------------| 8---------- 8-- 8-- 8----------|
A|--------------------------------|-------------------- 6------ 8--|
E|---- 6-- 6-- 6-- 6-- 6-- 6-- 6--| 6-- 6-- 6-- 6-- 6--------------|
http://classicalguitartablature.blogspot.com/
E|10-- 8------ 8---------- 8------|------------------------------10|
B|--------1110------11------------|--------------------------------|
G|--------------------------------| 9--10--10--10--10--10------12--|
D|--------------------------------| 9--10--10--10--10--10------12--|
A|---- 8-- 8-- 8-- 7-- 8-- 8-- 8--| 7-- 8-- 8-- 8-- 8-- 8----10----|
E|--------------------------------|--------------------------------|
http://classicalguitartablature.blogspot.com/
E|--------------------------------|------------------------------10|
B|--13----11--13------11----------|-------------------------- 6----|
G|10------------------------------|1212----1212----12-- 8----------|
D|--------------------------------|1212----1212----12--------------|
A|--10--10--10--10--10----1010----|10--10--10--10--10--------------|
E|--------------------------------|-------------------- 8------ 6--|
http://classicalguitartablature.blogspot.com/
E|-- 8-- 6-- 8-------- 6----------|--------------------------------|
B|-- 6-- 6-- 6-------- 6----------| 6-- 6-- 6-- 6-- 6-- 4----------|
G|------ 7-- 7-------- 7----------| 7-- 7-- 7------ 7-- 3------10--|
D|--------------------------------| 8-- 8-- 8-- 8-- 8-- 5----------|
A|--------------------------------|-------------------- 6------ 8--|
E|---- 6-- 6-- 6-- 6-- 6-- 6-- 6--| 6-- 6-- 6-- 6-- 6--------------|
http://classicalguitartablature.blogspot.com/
E|10-- 8------ 8---------- 8------|------------------------------10|
B|--------1110------11------------|--------------------------------|
G|--------------------------------| 9--10--10--10--10--10------12--|
D|--------------------------------| 9--10--10--10--10--10------12--|
A|---- 8-- 8-- 8-- 7-- 8-- 8-- 8--| 7-- 8-- 8-- 8-- 8-- 8----10----|
E|--------------------------------|--------------------------------|
http://classicalguitartablature.blogspot.com/
E|--------------------------------|------------------------------10|
B|--13----11--13------11----------|-------------------------- 6----|
G|10------------------------------|1212----1212----12-- 8----------|
D|--------------------------------|1212----1212----12--------------|
A|--10--10--10--10--10----1010----|10--10--10--10--10--------------|
E|--------------------------------|-------------------- 8------ 6--|
http://classicalguitartablature.blogspot.com/
E|-- 8-- 6-- 8-------- 6----------|--------------------------------|
B|-- 6-- 6-- 6-------- 6----------| 6-- 6-- 6-- 6-- 6-- 4----------|
G|------ 7-- 7-------- 7----------| 7-- 7-- 7------ 7-- 3------10--|
D|--------------------------------| 8-- 8-- 8-- 8-- 8-- 5----------|
A|--------------------------------|-------------------- 6------ 8--|
E|---- 6-- 6-- 6-- 6-- 6-- 6-- 6--| 6-- 6-- 6-- 6-- 6--------------|
http://classicalguitartablature.blogspot.com/
E|10-- 8------ 8---------- 8------|--------------------------------|
B|--------1110------11------------|--------------------11----------|
G|--------------------------------| 9--10--10--10--10--10----------|
D|--------------------------------| 9--10--10--10--10--10----------|
A|---- 8-- 8-- 8-- 7-- 8-- 8-- 8--| 7-- 8-- 8-- 8-- 8-- 8----------|
E|--------------------------------|--------------------------------|
http://classicalguitartablature.blogspot.com/
E| 3------ 3------ 3------ 3------| 1------ 1------ 1------ 1------|
B| 3------ 3------ 3------ 3------| 1------ 1------ 1------ 1------|
G| 3------ 3------ 3------ 3------| 2------ 2------ 2------ 2------|
D|--------------------------------|--------------------------------|
A|--------------------------------|--------------------------------|
E|---- 3-- 3----------------------|---- 1-- 1----------------------|
http://classicalguitartablature.blogspot.com/
E| 3------ 3------ 3------ 3------|--------------------------------|
B| 4------ 4------ 4------ 4------| 6------ 6------ 6------ 6------|
G| 3------ 3------ 3------ 3------| 7------ 7------ 7------ 7------|
D|--------------------------------| 7------ 7------ 7------ 7------|
A|---- 6-- 6----------------------|---- 5-- 5----------------------|
E|--------------------------------|--------------------------------|
http://classicalguitartablature.blogspot.com/
E| 3------ 3------ 3------ 3------| 1------ 1------ 1--------------|
B| 4------ 4------ 4------ 4------| 1------ 1------ 1------ 1-- 3--|
G| 5------ 5------ 5------ 5------| 3------ 3------ 3------ 3-- 0--|
D|--------------------------------|------------------------ 1-- 0--|
A|---- 3-- 3----------------------|--------------------------------|
E|--------------------------------|---- 1-- 1-------------- 1-- 3--|
http://classicalguitartablature.blogspot.com/

0 ความคิดเห็น:

แสดงความคิดเห็น