To celebrate the anniversary, I am giving you (finally...) : iPhone LickByNeck !!!!!!

The Blower's Daughter (BASIC)

Damien Rice's tune fingerstyle chord melody guitar BASIC arrangement played in the key of G.

The Blower's Daughter-Damien Rice-BASIC ARRANGEMENT played in the key of G.
http://classicalguitartablature.blogspot.com/
E|--------------------------------|--------------------------------|
B|---------- 3-------------- 0----| 0---------- 0------------------|
G|------ 0-------------------- 2--|------ 0---------- 0------------|
D|---- 4------------------ 0------|---- 0---------------- 0-- 0-- 0|
A| 5------------------------------|--------------------------------|
E|--------------------------------| 3---------------------------- 3|
http://classicalguitartablature.blogspot.com/
E|--------------------------------|--------------------------------|
B|--------------------------------|------------ 1------------------|
G|-------------------- 0----------|------ 0---------- 0------------|
D|---- 2------ 4------------ 4----|-- 2------------------ 2-- 2-- 2|
A|-------------- 2-------------- 3|------------------------------ 3|
E|--------------------------------|--------------------------------|
http://classicalguitartablature.blogspot.com/
http://classicalguitartablature.blogspot.com/
E|--------------------------------|--------------------------------|
B|--------------------------------|---------- 3--------------------|
G|---------- 0-------- 2---- 0----|------ 0---------- 0------------|
D|---- 4--------------------------|---- 4---------------- 4--------|
A|---------------- 3------------ 5|-------------------------- 5-- 3|
E|--------------------------------|--------------------------------|
http://classicalguitartablature.blogspot.com/
E|--------------------------------|--------------------------------|
B|---------- 1--------------------|------------ 0------------------|
G|------ 0------------------------|-------- 0---------- 0---- 0----|
D|-- 2---------------- 2---- 0 2--| 0---------------------- 0------|
A|--------------------------------|--------------------------------|
E|--------------------------------| 3---------------------------- 3|
http://classicalguitartablature.blogspot.com/
E|--------------------------------|--------------------------------|
B|------------ 0------------ 0----| 0---------- 0------------------|
G|-------- 0------------------ 2--|------ 0---------- 0------------|
D|---- 0------------ 0------------|---- 0---------------- 0-- 0-- 0|
A|--------------------------------|--------------------------------|
E|--------------------------------| 3---------------------------- 3|
http://classicalguitartablature.blogspot.com/
E|--------------------------------|--------------------------------|
B|--------------------------------|------------ 1------------------|
G|-------------------- 0----------|------ 0---------- 0------------|
D|---- 2------ 4------------ 4----|-- 2------------------ 2-- 2-- 2|
A|-------------- 2-------------- 3|------------------------------ 3|
E|--------------------------------|--------------------------------|
http://classicalguitartablature.blogspot.com/
E|--------------------------------|--------------------------------|
B|--------------------------------|------------------ 3------------|
G|---------- 0-------- 2------ 0--|---------- 0---------- 0--------|
D|---- 4--------------------------|-- 4---------------------- 4-- 4|
A|---------------- 3------------ 5|------------------------------ 5|
E|--------------------------------|--------------------------------|
http://classicalguitartablature.blogspot.com/
E|--------------------------------|--------------------------------|
B|------------------ 0------ 0----|---------- 0--------------------|
G|-- 0------ 2--------------------|------ 0---------- 0------ 0----|
D|--------------------------------|-- 2------------------ 2--------|
A|-------------- 5----------------|--------------------------------|
E|--------------------------------| 0---------------------------- 0|
http://classicalguitartablature.blogspot.com/
E|---------- 0------ 2------ 3-- 3|-- 0------ 0-- 0----------------|
B|---------- 0------ 0---------- 1|------------ 3 1---------- 1----|
G|------ 0---------- 0---------- 0|------ 0-------------- 0--------|
D|-- 2----------------------------|------------------ 2------------|
A|------------------------------ 3|------------------------------ 3|
E|--------------------------------|--------------------------------|
http://classicalguitartablature.blogspot.com/
E|---------- 0-- 0---- 2---- 3----| 7------------------------------|
B|-------------- 1----------------| 7------------------------ 7----|
G|------ 0------ 0-------------- 7|---- 7---- 7-- 7------ 7--------|
D|-- 2----------------------------|------------10---- 7------------|
A|--------------------------------|--------------------------------|
E|------------------------------ 7|------------------------------ 7|
http://classicalguitartablature.blogspot.com/
E|--------------------------------|--------------------------------|
B|--------------------------------| 3-- 1---- 1 0-- 1--------------|
G|------ 7------------------ 7----| 0-------------------- 0--------|
D|-- 7------ 9-- 9----10-------- 2|-------- 2---------- 2----------|
A|------------------------------ 0|---------------- 0---------- 0--|
E|-------------- 7----------------|--------------------------------|
http://classicalguitartablature.blogspot.com/
E|--------------------------------|--------------------------------|
B|-------------------- 0---- 1-- 1|-- 0------ 0-- 0----------------|
G|------ 0-- 2-- 2-------------- 0|---------- 0 2-------- 0--------|
D|-- 2---------- 2-------------- 0|------ 0---------- 0------------|
A| 0------------ 0----------------|--------------------------------|
E|------------------------------ 3|-------------- 3---------- 3----|
http://classicalguitartablature.blogspot.com/
E|--------------------------------|--------------------------------|
B|------ 0------------------ 0----| 0------------------------------|
G|---------- 0-- 0------ 2--------| 0 2------ 2 0 2------ 2--------|
D|-- 0---------- 0-------------- 2|------ 2---------- 2------------|
A|-------------- 2-------------- 3|-------------- 3------------ 3 5|
E| 3------------------------------|--------------------------------|
http://classicalguitartablature.blogspot.com/
E|--------------------------------|--------------------------------|
B|------ 3------------------------|--------------------------------|
G|------ 2------------ 0---- 2-- 2|-- 0------ 0-- 0------ 0--------|
D|-- 4------ 4-- 4-------------- 2|------ 2---- 4 2-- 2------ 2----|
A|-------------- 5-------------- 3|------------------------------ 3|
E|--------------------------------|--------------------------------|
http://classicalguitartablature.blogspot.com/
E|--------------------------------|--------------------------------|
B|------------------------------ 2|-------- 2-------------- 2------|
G|------ 0------------ 0 0------ 2|-------- 2-------------- 2------|
D|-- 2------ 2-------- 2 2--------|---- 2------------ 2------------|
A|-------------- 3------------ 3--| 0---------- 0-- 0---------- 0--|
E|--------------------------------|--------------------------------|
http://classicalguitartablature.blogspot.com/
E|--------------------------------|--------------------------------|
B| 2 3-------- 2------------------| 2-------------------- 2--------|
G| 2---------- 2---- 4------ 2----| 2---- 2-------------- 2--------|
D| 2------ 2-- 2------ 2-- 2 2-- 4|---- 4------------ 4---------- 4|
A| 4-------------- 4------------ 5|------------ 5-- 5---------- 5 5|
E|--------------------------------|--------------------------------|
http://classicalguitartablature.blogspot.com/
E|--------------------------------|--------------------------------|
B| 2 3------ 2-------------- 2-- 3|---------- 3---------- 3--------|
G| 2 2------ 2------ 4---------- 2|------ 2-------------- 2------ 1|
D|------ 4-- 2---------- 2--------|-- 4-------- 4---- 4------ 4-- 0|
A|---------------- 4------------ 2|-------------- 2----------------|
E|--------------------------------|------------------------------ 0|
http://classicalguitartablature.blogspot.com/
E|--------------------------------|--------------------------------|
B|------------------ 0------ 2----|------ 2------------------ 2----|
G|-- 1-------- 2------------ 2----|-------- 2------------ 2--------|
D|-- 0-- 0---- 0-------- 0--------|---- 2------------ 2-------- 2--|
A|--------------------------------|--------------------------------|
E|---------------- 0--------------| 2---------- 2-- 2--------------|
http://classicalguitartablature.blogspot.com/
E|-------------- 2---- 4---- 5----| 5------------------------------|
B|------ 2------ 2---------- 2----| 7-- 7---- 7 5-- 7------ 7------|
G|-------- 2---- 2---- 2---- 2-- 6|---- 6---- 6---- 6-- 6----------|
D|-- 2----------------------------|-------- 7---------- 7----------|
A|------------------------------ 5|---------------- 5---------- 5--|
E| 2-------- 2-- 2----------------|--------------------------------|
http://classicalguitartablature.blogspot.com/
E|-------------------------- 5----| 9------------------------------|
B|------ 7-------- 7-- 9----------|---------------------- 9--------|
G|------ 6-------- 6------------ 9|-- 9------ 9-- 9---- 9----------|
D|---- 7-------- 7----------------|------11----12----11------------|
A| 5---------- 5 5----------------|--------------------------------|
E|------------------------------ 9|-------------- 9---------- 9----|
http://classicalguitartablature.blogspot.com/
E|--------------------------------|--------------------------------|
B|------ 9---------------------- 5|-- 3------ 3 2 3-------- 3------|
G|------ 9------------------ 9-- 2|-- 2---------- 2---- 2----------|
D|--11------11--11----12-------- 4|------ 4---------- 4------------|
A|------------------------------ 2|---------------- 2---------- 2--|
E| 9------------ 9----------------|--------------------------------|
http://classicalguitartablature.blogspot.com/
E|--------------------------------|--------------------------------|
B|------ 3------------ 2---- 3----| 3 2------ 2-- 2------ 2--------|
G|------ 2-- 4---- 4-- 2---- 2-- 2|-- 2-------- 4------ 2----------|
D|---- 4---------- 4-- 4---- 4-- 2|------ 2---------- 2------------|
A| 2-------------- 2------------ 0|-------------- 0------------ 0--|
E|--------------------------------|--------------------------------|
http://classicalguitartablature.blogspot.com/
E|--------------------------------|--------------------------------|
B|-------- 2---------------- 2----| 2-- 0---- 0---- 0------ 0------|
G|---- 2------ 2 2------ 4--------| 2---------- 2-------- 2--------|
D|---------------- 2---- 2------ 4|-------- 4---------- 4----------|
A| 0-------------- 4------------ 5|---------------- 5---------- 5--|
E|--------------------------------|--------------------------------|
http://classicalguitartablature.blogspot.com/
E|--------------------------------|--------------------------------|
B|-------- 0---------------- 0----| 0------------------------------|
G|-------- 1------ 1-- 2----------| 2-- 2------ 2-- 1 2---------- 2|
D|---- 2------ 2-- 2------------ 4|-------- 4-------------- 4------|
A|------------------------------ 5|--------------------------------|
E| 0------------ 0----------------|--------------------------------|
http://classicalguitartablature.blogspot.com/
E|--------------------------------|--------------------------------|
B|------ 0------------------------|--------------------------------|
G|--------------------------------|--------------------------------|
D|--------------------------------|--------------------------------|
A|---------------------- 5--------|--------------------------------|
E|--------------------------------|--------------------------------|
http://classicalguitartablature.blogspot.com/

0 ความคิดเห็น:

แสดงความคิดเห็น