To celebrate the anniversary, I am giving you (finally...) : iPhone LickByNeck !!!!!!

The Electric Company Theme (BASIC)

TV's tune fingerstyle chord melody guitar BASIC arrangement played in the key of D.

The Electric Company Theme-BASIC ARRANGEMENT played in the key of D.
http://classicalguitartablature.blogspot.com/
E|--------------------------------|--------------------------------|
B|--------------------------------|---- 3-- 3-- 3-- 3-- 3-- 3-- 3--|
G|------------ 4------ 4------ 4--|-------- 4------ 4 4---- 4-- 2--|
D|------------ 5------------------|------------------------ 5-- 4--|
A|--------------------------------|--------------------------------|
E|-- 5---- 5------ 5------ 5------| 5------ 5------ 5------ 5------|
http://classicalguitartablature.blogspot.com/
E|--------------------------------|---------------------------- 3--|
B|--------------------------------|---- 3-- 3-- 3-- 3-- 3-- 3-- 3--|
G|-- 2----------------------------|---- 4-------- 4---- 4-- 4------|
D|---- 4--------------------------|---- 5-- 5---------- 5-- 5------|
A| 5------------------------------|--------------------------------|
E|------ 2------ 3---- 4------ 5--|-------- 5------ 5------ 5------|
http://classicalguitartablature.blogspot.com/
http://classicalguitartablature.blogspot.com/
E|---- 2--------------------------|---------------------------- 7--|
B|---- 3--------------------------|---- 3-- 3-- 3-- 3-- 3-- 3-- 7--|
G|--------------------------------|---- 4-- 4-- 4-- 4-- 4------ 7--|
D|--------------------------------|---- 5------ 5------ 5-- 5------|
A| 5------------------------------|--------------------------------|
E|-------- 2------ 3-- 4------ 5--|-------- 5------ 5------ 5------|
http://classicalguitartablature.blogspot.com/
E|-------- 5------ 7--------------| 7---------- 7---------- 5-- 5--|
B|-------- 7------10------10--10--|10------10-- 7---------- 7-- 7--|
G|-------- 7------ 9------ 9-- 9--| 7------ 7-- 7---------- 7------|
D|------------------------ 7-- 7--|-------- 9----------------------|
A| 5------ 5-- 5------------------|--------------------------------|
E|---------------- 9------ 9-- 9--| 7------ 7------ 5------ 5-- 5--|
http://classicalguitartablature.blogspot.com/
E| 3------ 2----------------------|--------------------------------|
B| 3------ 3------ 5--------------|---- 3-- 3-- 3 3-- 3---- 3-- 3--|
G| 0------ 0------ 5--------------|---- 4-- 4-- 4-- 4 4---- 4-- 2--|
D|---------------- 5--------------|---- 5-- 5---- 5-- 5---- 5-- 4--|
A|---------------- 3-- 3----------|--------------------------------|
E| 3------ 3------------------ 5--|-------- 5------ 5------ 5------|
http://classicalguitartablature.blogspot.com/
E|--------------------------------|---------------------------- 3--|
B|--------------------------------|---- 3-- 3-- 3-- 3-- 3-- 3-- 3--|
G|-- 2----------------------------|---- 4-------- 4---- 4-- 4------|
D|---- 4--------------------------|---- 5-- 5---------- 5-- 5------|
A| 5------------------------------|--------------------------------|
E|------ 2------ 3---- 4------ 5--|-------- 5------ 5------ 5------|
http://classicalguitartablature.blogspot.com/
E|---- 2--------------------------|---------------------------- 7--|
B|---- 3--------------------------|---- 3-- 3-- 3-- 3-- 3-- 3-- 7--|
G|--------------------------------|---- 4-- 4-- 4-- 4-- 4------ 7--|
D|--------------------------------|---- 5------ 5------ 5-- 5------|
A| 5------------------------------|--------------------------------|
E|-------- 2------ 3-- 4------ 5--|-------- 5------ 5------ 5------|
http://classicalguitartablature.blogspot.com/
E|-------- 5------ 7--------------| 7---------- 7---------- 5-- 5--|
B|-------- 7------10------10--10--|10------10-- 7---------- 7-- 7--|
G|-------- 7------ 9------ 9-- 9--| 7------ 7-- 7---------- 7------|
D|------------------------ 7-- 7--|-------- 9----------------------|
A| 5------ 5-- 5------------------|--------------------------------|
E|---------------- 9------ 9-- 9--| 7------ 7------ 5------ 5-- 5--|
http://classicalguitartablature.blogspot.com/
E| 3------ 2----------------------|--------------------------10----|
B| 3------ 3------ 5--------------|---- 3-- 3-- 3 3-- 3---- 3------|
G| 0------ 0------ 5--------------|---- 4-- 4-- 4-- 4 4---- 410----|
D|---------------- 5--------------|---- 5-- 5---- 5-- 5---- 5------|
A|---------------- 3-- 3----------|--------------------------------|
E| 3------ 3------------------ 5--|-------- 5------ 5------ 5------|
http://classicalguitartablature.blogspot.com/
E|------ 7------------------------|---------------------------- 5--|
B|--10------------------------12--|----12--12--12--12--12--12-- 7--|
G|--10------------------------10--|----10----1010--10--10--10-- 7--|
D|--------------------------------|--------------------------------|
A|10-- 0--------------------------|-------- 8-- 9--10--1112--------|
E|-------- 7---------- 8-- 9--10--|----10----------------------12--|
http://classicalguitartablature.blogspot.com/
E|--------------------------------|----------------------------10--|
B|--------------------------------|---- 3-- 3-- 3-- 3-- 3-- 3-- 9--|
G|--------------------------------|---------------------------- 7--|
D|--------------------------------|--------------------------------|
A| 5 5----------------------------|-------------- 5---- 5-- 6------|
E|-------- 8------ 5-- 8---- 3 5--|---- 1 2------------------------|
http://classicalguitartablature.blogspot.com/
E|----10-- 9-- 7---------- 9------|10-- 9------ 7-------- 7-- 7-- 9|
B|---- 9------------------ 9------| 9-- 9------ 9-------- 9--------|
G|---- 7-- 7-- 7---------- 7------| 7-- 7------ 7-------- 7-- 7----|
D|--------------------------------|--------------------------------|
A|-------- 7---------- 7----------|-------------- 7----------------|
E| 0-------------------------- 7--|10--10------------ 7---- 0------|
http://classicalguitartablature.blogspot.com/
E|------ 9------10--10------12----|--------------------------------|
B| 0------------ 0---------- 0----|--------------------------------|
G| 0------------ 0---------- 0----|--------------------------------|
D|--------------------------------|--------------------------------|
A|12---------------------------- 0|------ 0-------- 0---- 0--------|
E|--------------12----------------|--------------------------------|
http://classicalguitartablature.blogspot.com/
E|-------------- 5----------------|--------------------------------|
B|--------------------------------| 5------------------------------|
G|--------------------------------|---------------- 4--------------|
D|--------------------------------|--------------------------------|
A|------ 0-------- 0------ 0------| 0------ 0------ 0------ 0------|
E|--------------------------------|--------------------------------|
http://classicalguitartablature.blogspot.com/
E|-------------- 3-------------- 5|--------------------------------|
B| 3------------------------------|--------------------------------|
G|--------------------------------|--------------------------------|
D|--------------------------------|--------------------------------|
A| 0------ 0------ 0------ 0---- 0|-------- 0------ 0------ 0------|
E|--------------------------------|--------------------------------|
http://classicalguitartablature.blogspot.com/
E|--------------------------------|--------------------------------|
B|-- 3---- 3 3---- 3-- 3-- 3-- 3--|--------------------------------|
G|-- 4---- 4------ 4 4------ 4 2--|-- 2----------------------------|
D|------------------------ 5-- 4--|---- 4--------------------------|
A|--------------------------------| 5------------------------------|
E| 5------ 5------ 5------ 5------|------ 2------ 3---- 4------ 5--|
http://classicalguitartablature.blogspot.com/
E|---------------------------- 3--|---- 2--------------------------|
B|---- 3-- 3-- 3-- 3-- 3-- 3-- 3--|---- 3--------------------------|
G|---- 4-------- 4---- 4-- 4------|--------------------------------|
D|---- 5-- 5---------- 5-- 5------|--------------------------------|
A|--------------------------------| 5------------------------------|
E|-------- 5------ 5------ 5------|-------- 2------ 3-- 4------ 5--|
http://classicalguitartablature.blogspot.com/
E|---------------------------- 2--|---------------- 2-- 3------ 5--|
B|---- 3-- 3-- 3-- 3-- 3-- 3------|-------- 3-- 3-- 2---------- 3--|
G|---- 4-- 4-- 4-- 4-- 4----------|-------- 2------ 2---------- 2--|
D|---- 5------ 5------ 5-- 5------|-------- 4----------------------|
A|--------------------------------| 5------ 5------ 4------ 4------|
E|-------- 5------ 5------ 5------|--------------------------------|
http://classicalguitartablature.blogspot.com/
E|---------------- 2-- 5------ 7--|--------------------------------|
B|---- 3-- 3-- 3------ 3----------|--------------------------------|
G|---- 2-- 2------ 2--------------|-- 0----------------------------|
D|-------- 4-- 4------------------|---- 0------ 0------ 0------ 0--|
A| 2------ 2------ 0------ 0------|--------------------------------|
E|------------------------------ 3|-------- 3------ 2------ 2------|
http://classicalguitartablature.blogspot.com/
E|--------10-- 7--10-- 7--10-- 7--|10------------------------------|
B|---- 0-- 0-- 0-- 0-- 0-- 0------| 7------------------------------|
G|---- 0-- 0-- 0-- 0-- 0-- 0-- 0--| 7------------------------------|
D|--------------------------------|---- 7--------------------------|
A|---------------- 0--------------|---------------------------- 0--|
E| 0------------------------------|10------ 2------ 3-- 4----------|
http://classicalguitartablature.blogspot.com/
E|----10------ 7--10-- 7--10-- 7--|10------------------------------|
B|---- 0------ 0-- 0------ 0-- 0--| 7------------------------------|
G|---- 0------ 0-- 0-- 0-- 0-- 0--| 7------------------------------|
D|--------------------------------|------ 7------------------------|
A|-------- 0------ 0------ 0------|---------------------------- 0--|
E|--------------------------------|10-------- 2---- 3---- 4--------|
http://classicalguitartablature.blogspot.com/
E|----10------ 7--10-- 7--10-- 7--|10------------------------------|
B|---- 0------ 0-- 0------ 0-- 0--| 7------------------------------|
G|---- 0------ 0-- 0-- 0-- 0-- 0--| 7------------------------------|
D|--------------------------------|--------------------------------|
A|-------- 0------ 0------ 0------|------------ 0------ 0------ 0--|
E|--------------------------------|--------10------10------10------|
http://classicalguitartablature.blogspot.com/
E|--------------------------------|--------------------------------|
B|--------------------------------|--------------------------------|
G|--------------------------------|--------------------------------|
D|--------------------------------|--------------------------------|
A|--------------------------------|--------------------------------|
E|10------------------------------|--------------------------------|
http://classicalguitartablature.blogspot.com/

0 ความคิดเห็น:

แสดงความคิดเห็น