To celebrate the anniversary, I am giving you (finally...) : iPhone LickByNeck !!!!!!

The Way We Were (BASIC)

Barbra Streisand's tune fingerstyle chord melody guitar BASIC arrangement played in the key of A.

The Way We Were-Barbra Streisand-BASIC ARRANGEMENT played in the key of A.
http://classicalguitartablature.blogspot.com/
E| 5------ 5------ 5------ 5------|--------------------------------|
B| 5-- 5-- 5-- 5-- 5------ 5-- 5--|-------- 3------ 3---------- 3--|
G| 6-- 6------ 6------ 6------ 6--|---- 2------ 2-- 1------ 1------|
D|--------------------------------|---- 2-------------- 2----------|
A| 0------------------------------|--------------------------------|
E|--------------------------------| 0------------------------------|
http://classicalguitartablature.blogspot.com/
E| 2------ 2----------------------|------------ 2-- 5-- 4---- 2----|
B| 2---------- 5-- 5------ 5------| 3-------- 5 3-- 3---------- 5--|
G|---------------- 2---- 2-- 2-- 2| 2------ 2------ 2------ 2------|
D|---- 2-------------- 2------ 2--|---- 2--------------------------|
A| 0-------------- 0--------------| 0-------------- 0--------------|
E|--------------------------------|--------------------------------|
http://classicalguitartablature.blogspot.com/
http://classicalguitartablature.blogspot.com/
E|--------------------------------|--------------------------------|
B| 2------ 2-------------- 2------|-------- 2 0 2-- 5------ 6------|
G|-------- 2------------ 2-- 2-- 2|------ 2------------ 6------ 6--|
D|---- 2-------------- 2------ 2--|---- 4---------- 6--------------|
A|--------------------------------| 5-------------- 4--------------|
E| 2---------- 2-- 0--------------|--------------------------------|
http://classicalguitartablature.blogspot.com/
E| 4------ 4-- 2-- 2--------------|--------------------------------|
B| 2-------------- 2------ 2------|---------- 0 2-- 0---- 0------ 2|
G| 2---- 2-------------- 2-- 2----|------ 2---- 2-- 1---- 1---- 2--|
D|---- 2-------------- 2------ 2--|---- 4-- 4---------- 2----------|
A|--------------------------------| 5------------------------------|
E| 2-------------- 0--------------|---------------- 0--------------|
http://classicalguitartablature.blogspot.com/
E|--------------------------------|--------------------------------|
B|-------- 2----------------------|-------- 3-------------- 3------|
G|------ 2-- 2------------ 2------|------ 2-- 2------------ 1------|
D|---- 2-------- 2-- 2------------|---- 0-------- 0---- 0------ 0--|
A| 0-------------- 0---------- 0--|--------------------------------|
E|--------------------------------| 0-------------- 0--------------|
http://classicalguitartablature.blogspot.com/
E| 2------ 2----------------------|------------ 2-- 5-- 4---- 2----|
B| 2---------- 5-- 5------ 5------| 3-------- 5 3-- 3---------- 5--|
G|---------------- 2---- 2-- 2-- 2| 2------ 2------ 2------ 2------|
D|---- 2-------------- 2------ 2--|---- 2--------------------------|
A| 0-------------- 0--------------| 0-------------- 0--------------|
E|--------------------------------|--------------------------------|
http://classicalguitartablature.blogspot.com/
E|--------------------------------|--------------------------------|
B| 2------ 2-------------- 2------|-------- 2 0 2-- 5------ 6------|
G|-------- 2------------ 2-- 2-- 2|------ 2------------ 6------ 6--|
D|---- 2-------------- 2------ 2--|---- 4---------- 6--------------|
A|--------------------------------| 5-------------- 4--------------|
E| 2---------- 2-- 0--------------|--------------------------------|
http://classicalguitartablature.blogspot.com/
E| 4------ 4-- 2-- 2--------------|--------------------------------|
B| 2-------------- 2------ 2------|---------- 0 2-- 0---- 0------ 2|
G| 2---- 2-------------- 2-- 2----|------ 2---- 2-- 1---- 1---- 2--|
D|---- 2-------------- 2------ 2--|---- 4-- 4---------- 2----------|
A|--------------------------------| 5------------------------------|
E| 2-------------- 0--------------|---------------- 0--------------|
http://classicalguitartablature.blogspot.com/
E|--------------------------------|--------------------------------|
B|-------- 2----------------------|-------- 0-------------- 0------|
G|------ 2-- 2------------ 2------|------ 0-- 0---------- 0-- 0----|
D|---- 2-------- 2-- 2------------|---- 0-------- 0---- 0------ 0--|
A| 0-------------- 0---------- 0--|---------------- 0--------------|
E|--------------------------------| 0------------------------------|
http://classicalguitartablature.blogspot.com/
E|------------ 5 5---------- 5 4--| 4-- 2--------------------------|
B|------ 7---- 7 7------------ 2--|---- 3 3---- 3------ 3----------|
G|---- 6-------------- 6---- 2 2--| 4-- 4---- 4 4------ 4-- 4-- 4--|
D|---- 7---- 7------ 7------------|--------------------------------|
A| 5-------------------- 4--------| 2-------------- 2---------- 2--|
E|--------------------------------|--------------------------------|
http://classicalguitartablature.blogspot.com/
E|---------- 4 4------------------| 4------------------------------|
B|------------ 5---- 5------ 5-- 5| 2------ 2-------------- 2------|
G|------ 6-------------- 6---- 6--| 4---- 4-- 4---------- 3-- 3----|
D|---- 6--------------------------|---- 2-------- 2---- 2------ 2--|
A| 4-------------- 4--------------|--------------------------------|
E|--------------------------------| 2-------------- 2--------------|
http://classicalguitartablature.blogspot.com/
E|------------ 2 2---------- 2----| 2 2------------------------ 2--|
B|-------- 3-- 3 3------ 3--------|-- 3 5-- 3-- 3---------- 3------|
G|------ 4------------ 3-- 3---- 2|-- 2---------------- 1----------|
D|---- 4--------------------------|-------------------- 2----------|
A| 2-------------- 2--------------|--------------------------------|
E|------------------------------ 0|---------------- 0--------------|
http://classicalguitartablature.blogspot.com/
E|--------------------------------|-------------- 0----------------|
B| 5-- 2 5------ 5-------- 5------|------------ 2-------------- 2--|
G| 2-- 2 2---- 2---------- 2------|------ 2 1------------ 1--------|
D|---- 2 2-- 2-------- 2----------|---- 0-------------- 0----------|
A| 0-------------- 0---------- 0--|--------------------------------|
E|--------------------------------| 0------------------------------|
http://classicalguitartablature.blogspot.com/
E| 2------ 2----------------------|------------ 2-- 5-- 4---- 2----|
B| 2---------- 5-- 5------ 5------| 3-------- 5 3-- 3---------- 5--|
G|---------------- 2---- 2-- 2-- 2| 2------ 2------ 2------ 2------|
D|---- 2-------------- 2------ 2--|---- 2--------------------------|
A| 0-------------- 0--------------| 0-------------- 0--------------|
E|--------------------------------|--------------------------------|
http://classicalguitartablature.blogspot.com/
E|--------------------------------|--------------------------------|
B| 2------ 2-------------- 2------|-------- 2 0 2-- 5------ 6------|
G|-------- 2------------ 2-- 2-- 2|------ 2------------ 6------ 6--|
D|---- 2-------------- 2------ 2--|---- 4---------- 6--------------|
A|--------------------------------| 5-------------- 4--------------|
E| 2---------- 2-- 0--------------|--------------------------------|
http://classicalguitartablature.blogspot.com/
E| 4------ 4-- 2-- 2--------------|------ 4-- 5---------- 9--10----|
B| 2-------------- 2------ 2------|---- 7------------ 9----------12|
G| 2---- 2-------------- 2-- 2----|---- 6------------10---------- 9|
D|---- 2-------------- 2------ 2--|---- 7------------ 9----------11|
A|--------------------------------| 5------------------------------|
E| 2-------------- 0--------------|---------------- 9--------------|
http://classicalguitartablature.blogspot.com/
E|---- 9--------------------------|--------------------------------|
B|------10----10--------10--------|------------------10---- 9-- 7--|
G|------------ 9-------- 9--------|------ 7---- 7---- 7------------|
D|----------11------11------------|---- 7------ 7-------- 7--------|
A| 9------------------------------|------------------------------ 4|
E|----------------12----------12--|10--------------10--------------|
http://classicalguitartablature.blogspot.com/
E| 2------------------------------|-------------- 9-- 7------ 5----|
B|-------- 5------------------ 5--|-------- 7----------------------|
G| 4---- 4-- 4------------ 4------|------ 6-- 6--------------------|
D|---- 2------ 2------ 2----------|---- 7-------- 7----------------|
A|---------------- 4--------------| 5-------------- 5---- 5--------|
E|--------------------------------|--------------------------------|
http://classicalguitartablature.blogspot.com/
E| 2------------------------------|---------------- 91012-- 9------|
B|-------- 5-------------- 5------|--------10------10------101210--|
G|---- 4---------------- 4-- 4----|----11----11--1111------11------|
D|---- 2-------------- 2----------|----11--------------------------|
A| 4---------- 4-- 4---------- 4--|--------------------------------|
E|--------------------------------|10--------------10------10------|
http://classicalguitartablature.blogspot.com/
E| 2------------------------------|--------------------------------|
B|-------- 5-------------- 5------|-------- 3---- 2 0---- 0--------|
G|------ 4------------ 4---- 4----|------ 2-------------------- 2--|
D|---- 2-------------- 2------ 2--|---- 0------ 0------ 0---- 0----|
A| 4---------- 4-- 4--------------| 2------------------------------|
E|--------------------------------|---------------- 0--------------|
http://classicalguitartablature.blogspot.com/
E|--------------------------------|--------------------------------|
B| 2---- 2-------- 3------ 3------|------------ 2-- 0---------- 0--|
G|---- 2---- 2---- 2------ 2------|-------- 1----------------------|
D|---- 2-------- 2 4-- 4------ 4--|---- 2---------------- 2--------|
A| 0-------------- 0--------------|--------------------------------|
E|--------------------------------| 0------------------------------|
http://classicalguitartablature.blogspot.com/
E|--------------------------------|--------------------------------|
B|---------------------- 2--------|--------------------------------|
G| 2---------------------- 2------|--------------------------------|
D|---------------------- 2--------|--------------------------------|
A|---------------------- 0--------|--------------------------------|
E|--------------------------------|--------------------------------|
http://classicalguitartablature.blogspot.com/

0 ความคิดเห็น:

แสดงความคิดเห็น