To celebrate the anniversary, I am giving you (finally...) : iPhone LickByNeck !!!!!!

You And I (BASIC)

Stevie Wonder's tune fingerstyle chord melody guitar BASIC arrangement played in the key of C.

You And I-Stevie Wonder-BASIC ARRANGEMENT played in the key of C.
http://classicalguitartablature.blogspot.com/
E| 0------------------------------|------------------------------ 0|
B| 1------ 1------ 1------ 1------|-------- 1------------ 1------ 1|
G|-------- 0------ 2------ 2------|------ 1-- 1-------- 1---- 1----|
D|---- 2-------------- 3-------- 3|---- 0------ 0---- 0-------- 0--|
A| 3---------- 3-- 3---------- 3--| 3------------ 3----------------|
E|--------------------------------|--------------------------------|
http://classicalguitartablature.blogspot.com/
E|-------- 0----------------------|---------- 3 1---------------- 0|
B|-------- 1-------------- 1------|------ 1-- 1 1------ 1-- 1 3----|
G|------------ 0-- 2------ 2---- 2|---- 1 1------------ 1-- 1------|
D|---- 2-------- 3---- 3------ 3--|---- 0--------------------------|
A| 3-------------- 3--------------| 3------------------------------|
E|--------------------------------|--------------------------------|
http://classicalguitartablature.blogspot.com/
http://classicalguitartablature.blogspot.com/
E|---------- 0--------------------|------------ 3 1----------------|
B|------ 1---------------- 1------|-------- 1-- 1 1---- 1 1-- 3-- 5|
G|------------ 0-- 2------ 2---- 2|------ 1---- 1 1---- 1 1--------|
D|---- 2-------- 3---- 3------ 3--|---- 0-------------- 0----------|
A| 3-------------- 3--------------| 3------------------------------|
E|--------------------------------|--------------------------------|
http://classicalguitartablature.blogspot.com/
E|---------------------------- 0--|-------------------------- 0----|
B|------ 5------ 1------ 1---- 3--|-------- 2-------------- 2---- 5|
G|------ 2---- 2-------- 1--------|---- 1-------------- 1----------|
D|-- 3-------- 0------ 0----------|---- 2-------------- 2----------|
A| 2------------------------------| 0---------- 0-- 0--------------|
E|---------------- 0--------------|--------------------------------|
http://classicalguitartablature.blogspot.com/
E|--------------------------------|--------------------------------|
B|-------- 5 5-- 3-------- 3 2-- 3|--------------------------------|
G|---- 4-- 4 4-- 3---- 3-------- 2|-------- 2-------------- 1---- 0|
D|---- 2-------- 2---- 2-------- 3|---- 3-------------- 0---- 0----|
A| 4------------------------------| 2---------- 2------------------|
E|---------------- 2--------------|---------------- 0--------------|
http://classicalguitartablature.blogspot.com/
E|--------------------------------|--------------------------------|
B|-------------------------- 3----|------------ 3 3-------- 3------|
G|-------- 0---- 0-------- 0---- 5|------ 5---------------- 5------|
D|---- 3------ 3------ 3----------|---- 3 3------------ 3----------|
A|------------------------------ 5|---------------- 5---------- 5--|
E| 3-------------- 3--------------|--------------------------------|
http://classicalguitartablature.blogspot.com/
E|---------------- 0--------------|--------------------------------|
B|---------- 1-- 3 1-- 3---- 1----|-------- 1----------------------|
G|-------- 1 1---- 1-- 1----------| 0------ 0------------ 0--------|
D|---- 0------ 0---------- 0------|---- 2-------------- 2----------|
A|--------------------------------| 3---------- 3-- 3-------- 3 2--|
E| 1------------------------------|--------------------------------|
http://classicalguitartablature.blogspot.com/
E|--------------------------------|--------------------------------|
B| 6-------------------- 5------ 3|------------------------ 3-- 3--|
G| 6---- 6-------------- 6--------|------ 5------------------ 5----|
D| 5-- 5---- 7-- 5-- 5------ 5 7--|-- 4-- 4------------ 4----------|
A|------------------------------ 5|------------ 5-- 5--------------|
E| 5------------ 5----------------|--------------------------------|
http://classicalguitartablature.blogspot.com/
E| 0------------------------ 0 1--| 3------------------------ 3 5--|
B| 1------ 1-------------- 1 1 1--| 5------ 5-------------- 5------|
G|-------- 1------------ 2 2 2 2--|-------- 4------------ 4--------|
D|---- 0-------------- 3----------|---- 5-------------- 5----------|
A|--------------------------------| 3---------- 3-- 3--------------|
E| 1---------- 1-- 3--------------|--------------------------------|
http://classicalguitartablature.blogspot.com/
E| 6-------- 6---- 8--------------| 8------ 810--10--------10------|
B|-------- 3------ 8------ 8------|10--10--1010--10----10----10----|
G|---- 3---------- 9------ 9------| 9-- 9---- 9-- 9-- 9-------- 9--|
D|---- 3------ 3------ 8------ 8--|--------------------------------|
A|------------------------------ 8|---------------- 8--------------|
E| 3-------------- 8--------------|--------------------------------|
http://classicalguitartablature.blogspot.com/
E|---------- 81012--10------ 8----|--------------------------------|
B|-------- 9------ 9-- 9---- 9----| 8------ 8------------ 8--------|
G|---- 7------------------ 7------| 5-- 5---- 5-------- 5----------|
D|----10------------------------ 5|---- 5-------- 5---- 5----------|
A| 8-------------- 8--------------|--------------------------------|
E|------------------------------ 8|---------------- 8-------- 7 6--|
http://classicalguitartablature.blogspot.com/
E|---------- 5-------------- 5----|10--------------------------1012|
B| 6------ 6------ 8---- 8-- 6----|10------10------------10--13--10|
G| 6------ 6------ 6-- 6---- 6--11|--------11------------11--111110|
D| 5-- 5-------- 5-- 5------------|--10----10----------10----------|
A|--------------------------------|--------------------------------|
E| 5------------ 5--------------10|------------10--10--------------|
http://classicalguitartablature.blogspot.com/
E|------1210----------------1212--| 8------------------------------|
B|----1010--1310------------1010--| 8------ 8------------ 8-- 6 4--|
G|--10--101010--12------12--1212--| 8------ 8------------ 8-- 6 4--|
D|----------10--------10----------|----10--------------10---- 8 6--|
A|10--------------10--------------|11----------11--11-------- 9 7--|
E|--------------------------------|--------------------------------|
http://classicalguitartablature.blogspot.com/
E|--------------------------------|-------------------------- 0-- 3|
B| 3------ 3-------------- 3 1----|---------------- 1------ 1------|
G| 3------ 3-------------- 3 1 3--| 2------ 2------ 2--------------|
D| 5-- 5-------------- 5---- 3 4--| 3-- 3------ 3 3---- 3----------|
A| 6---------- 6-- 6-------- 4-- 2| 1------------------------------|
E|--------------------------------|-------------- 3----------------|
http://classicalguitartablature.blogspot.com/
E|---------- 0--------------------|--------------------------------|
B|--------------------------------|--------------------------------|
G|---------- 0--------------------|--------------------------------|
D|--------------------------------|--------------------------------|
A|-------- 3----------------------|--------------------------------|
E|--------------------------------|--------------------------------|
http://classicalguitartablature.blogspot.com/

0 ความคิดเห็น:

แสดงความคิดเห็น