To celebrate the anniversary, I am giving you (finally...) : iPhone LickByNeck !!!!!!
0 com

I Just Died In Your Arms (BASIC)

Cutting Crew's tune fingerstyle chord melody guitar BASIC arrangement played in the key of Bm.

I Just Died In Your Arms-Cutting Crew-BASIC ARRANGEMENT played in the key of Bm.
http://classicalguitartablature.blogspot.com/
E| 2------------------------ 3----|-- 3-- 3-- 2--------------------|
B| 3---------------- 3-- 3-- 0----|-- 0------ 0---------- 3-- 5----|
G| 2---- 2---------- 2-- 2-- 0----|-- 0-- 0------------------------|
D|---- 4---- 4------ 4-- 4--------|------------------ 0------------|
A| 2------------ 2----------------|------------------------------ 0|
E|--------------------------------| 0------------ 0----------------|
http://classicalguitartablature.blogspot.com/
E|------------------------------ 2|-------- 2---- 2----------------|
B|------------ 5------------ 5----| 2------ 2------ 2-- 5-- 3-- 3--|
G|------ 2-------------- 2--------| 3-------------- 3-- 3-- 3-- 3--|
D|-- 2---------------- 2----------|---- 4---- 4-------- 4-- 4-- 4--|
A|---------------- 0--------------|------------------------------ 2|
E|--------------------------------| 2-------------- 2--------------|
http://classicalguitartablature.blogspot.com/
http://classicalguitartablature.blogspot.com/
E|-------------------------- 3----|-- 3-- 3-- 2--------------------|
B|------------------ 3-- 3---- 0--|-- 0-- 0-- 0------------ 3-- 5--|
G|-- 4-------- 4---- 4-- 4---- 0--|-- 0-- 0------------------------|
D|-------- 4-------- 4-- 4--------|------------------ 0------------|
A|-------------- 2----------------|--------------------------------|
E|--------------------------------| 0------------ 0----------------|
http://classicalguitartablature.blogspot.com/
E|--------------------------------|------ 2------ 2-------------- 7|
B|------------ 5-------------- 5--|------ 2-- 6-- 2-- 6---- 7---- 7|
G|-------- 2-------------- 2------|-------------- 3-------------- 7|
D|---- 2-------------- 2----------|---- 4--------------------------|
A| 0-------------- 0--------------|------------------------------10|
E|--------------------------------| 2-------------- 2--------------|
http://classicalguitartablature.blogspot.com/
E|-- 7----------------------------|-------------------------- 5----|
B|-- 7-- 7-- 7--10--10---------- 7|-- 7---------------------- 3----|
G|-- 7-------------------- 9 9-- 7|------ 7-- 7-- 9------ 7-- 2----|
D|--------------------------------|------------------ 9------------|
A|------------------------------10|------------------------------ 2|
E|--------------------------------|--------------------------------|
http://classicalguitartablature.blogspot.com/
E|--------------------------------|--------------------------------|
B|---------- 3-------------- 3----|---------- 3-------------- 3----|
G|------ 2-------------- 2--------|------ 2-------------- 2------ 2|
D|-- 4-------------- 4------------|-- 4-------------- 4---------- 4|
A|-------------- 2-------------- 2|-------------- 2-------------- 2|
E|--------------------------------|--------------------------------|
http://classicalguitartablature.blogspot.com/
E|--------------------------------|--------------------------------|
B|--------------------------------|---------- 3-------------- 3----|
G|-- 4------ 4---------- 4------ 2|-- 4------------------ 4------ 2|
D|-- 4------ 4------ 4------ 4-- 4|-- 4-------------- 4---------- 0|
A|-------------- 2-------------- 2|-------------- 2----------------|
E|--------------------------------|------------------------------ 0|
http://classicalguitartablature.blogspot.com/
E|------------------------------ 0|-- 0----------------------------|
B|-- 0------ 0------ 0------ 0-- 0|-- 0-- 3-- 3-- 2------ 3------ 3|
G|---------- 0------ 0---------- 0|-------------- 0-------------- 2|
D|---------- 0------ 0------------|------------------ 0------ 0-- 2|
A|--------------------------------|--------------------------------|
E|-------------- 0-------------- 0|-------------- 0----------------|
http://classicalguitartablature.blogspot.com/
E|--------------------------------|--------------------------------|
B|---- 2------ 2------------------|--------------------------------|
G|---- 2------ 2------ 4------ 4--|-- 2-------- 2------------------|
D|---- 2------ 2------ 2------ 2--|------------------ 5------ 5----|
A| 0------------ 0-------------- 0|-------------- 0----------------|
E|--------------------------------|--------------------------------|
http://classicalguitartablature.blogspot.com/
E|--------------------------------|--------------------------------|
B|------------------ 2------------|---------- 2--------------------|
G|------------ 2-------------- 2--|------ 2---------------------- 2|
D|-- 4------------------ 4--------|-- 4---------------- 4------ 4 4|
A|--------------------------------|------------------------------ 2|
E| 2-------------- 2--------------| 2------------ 2----------------|
http://classicalguitartablature.blogspot.com/
E|--------------------------------|--------------------------------|
B|--------------------------------|---------- 3-------------- 3----|
G|-- 4------ 4---------- 4------ 2|-- 4------------------ 4------ 2|
D|-- 4------ 4------ 4------ 4-- 4|-- 4-------------- 4---------- 0|
A|-------------- 2-------------- 2|-------------- 2----------------|
E|--------------------------------|------------------------------ 0|
http://classicalguitartablature.blogspot.com/
E|------------------------------ 0|-- 0----------------------------|
B|-- 0------ 0------ 0------ 0-- 0|-- 0-- 3-- 3-- 2------ 3------ 3|
G|---------- 0------ 0---------- 0|-------------- 0-------------- 2|
D|---------- 0------ 0------------|------------------ 0------ 0-- 2|
A|--------------------------------|--------------------------------|
E|-------------- 0-------------- 0|-------------- 0----------------|
http://classicalguitartablature.blogspot.com/
E|--------------------------------|--------------------------------|
B|---- 2------ 2------------------|--------------------------------|
G|---- 2------ 2------ 4------ 4--|-- 2-------- 2------------------|
D|---- 2------ 2------ 2------ 2--|------------------ 5------ 5----|
A| 0------------ 0-------------- 0|-------------- 0----------------|
E|--------------------------------|--------------------------------|
http://classicalguitartablature.blogspot.com/
E|--------------------------------|-- 2---------- 2----------------|
B|------------ 2-------------- 2--|-- 2-- 5-- 3-- 2------ 5-- 3----|
G|------ 2-------------- 2--------|-- 2-- 5-- 2---- 2---- 5-- 2----|
D|---- 4-------------- 4----------|------ 4---- 4---- 4-- 4-- 4----|
A|--------------------------------|--------------------------------|
E| 2-------------- 2--------------| 2-------------- 2--------------|
http://classicalguitartablature.blogspot.com/
E| 2------------------------ 3----|-- 3-- 3-- 2--------------------|
B| 3---------------- 3-- 3-- 0----|-- 0------ 0---------- 3-- 5----|
G| 2---- 2---------- 2-- 2-- 0----|-- 0-- 0------------------------|
D|---- 4---- 4------ 4-- 4--------|------------------ 0------------|
A| 2------------ 2----------------|------------------------------ 0|
E|--------------------------------| 0------------ 0----------------|
http://classicalguitartablature.blogspot.com/
E|------------------------------ 2|-------- 2---- 2----------------|
B|------------ 5------------ 5----| 2------ 2------ 2-- 5-- 3-- 3--|
G|------ 2-------------- 2--------| 3-------------- 3-- 3-- 3-- 3--|
D|-- 2---------------- 2----------|---- 4---- 4-------- 4-- 4-- 4--|
A|---------------- 0--------------|------------------------------ 2|
E|--------------------------------| 2-------------- 2--------------|
http://classicalguitartablature.blogspot.com/
E|-------------------------- 3----|-- 3-- 3-- 2--------------------|
B|------------------ 3-- 3---- 0--|-- 0-- 0-- 0------------ 3-- 5--|
G|-- 4-------- 4---- 4-- 4---- 0--|-- 0-- 0------------------------|
D|-------- 4-------- 4-- 4--------|------------------ 0------------|
A|-------------- 2----------------|--------------------------------|
E|--------------------------------| 0------------ 0----------------|
http://classicalguitartablature.blogspot.com/
E|--------------------------------|------ 2------ 2-------- 2------|
B|------------ 5-------------- 5--|------ 2-- 6-- 2-- 6------------|
G|-------- 2-------------- 2------|-------------- 3----------------|
D|---- 2-------------- 2----------|---- 4--------------------------|
A| 0-------------- 0--------------|--------------------------------|
E|--------------------------------| 2-------------- 2--------------|
http://classicalguitartablature.blogspot.com/
E|--------------------------------|--------------------------------|
B|------------ 0---------- 0-- 0--| 0-- 0------ 3------------ 3----|
G|-------- 0-------------- 0-- 0--| 0-- 0---- 0---------- 0------ 2|
D|---- 0-------------- 0-- 0-- 0--| 0-- 0---- 0------ 0------------|
A|--------------------------------|--------------------------------|
E| 3------------------------------| 3------------------------------|
http://classicalguitartablature.blogspot.com/
E|---------------------------- 0--|--------------------------------|
B|-- 0-- 0------ 0------ 0-- 0----|-- 3------ 2------ 0------ 0----|
G|---------------------- 2---- 0--|---- 0---- 0------ 0-------- 0--|
D| 0------------------------------|------------------------ 0------|
A|--------------------------------|--------------------------------|
E| 0------------------------------| 0------------------------------|
http://classicalguitartablature.blogspot.com/
E|--------------------------------|------------------------------ 2|
B|-- 0---- 0---- 0-------- 0------| 0-- 0------ 3-------------- 3 2|
G| 2------ 2---- 2------------ 2--| 2-- 2------ 0-------- 0------ 3|
D| 0---------------- 0------------|---- 0-------------- 0----------|
A|--------------------------------|--------------------------------|
E| 3------------------------------|--------------------------------|
http://classicalguitartablature.blogspot.com/
E|------ 2------ 2-- 2-- 2---- 2--|---------- 2-- 2----------------|
B|------ 2------ 2-- 2-- 2---- 2--|------ 2------ 2---- 5---- 3----|
G|------ 3------ 3-- 3-- 3---- 3--|---- 3-------- 3---- 3---- 3----|
D|--------------------------------|-------------------- 2---- 2----|
A|--------------------------------|--------------------------------|
E| 2------------ 2----------------| 2-------------- 2--------------|
http://classicalguitartablature.blogspot.com/
E| 2------------------------ 3----|-- 3-- 3-- 2--------------------|
B| 3---------------- 3-- 3-- 0----|-- 0------ 0---------- 3-- 5----|
G| 2---- 2---------- 2-- 2-- 0----|-- 0-- 0------------------------|
D|---- 4---- 4------ 4-- 4--------|------------------ 0------------|
A| 2------------ 2----------------|------------------------------ 0|
E|--------------------------------| 0------------ 0----------------|
http://classicalguitartablature.blogspot.com/
E|------------------------------ 2|-------- 2---- 2----------------|
B|------------ 5------------ 5----| 2------ 2------ 2-- 5-- 3-- 3--|
G|------ 2-------------- 2--------| 3-------------- 3-- 3-- 3-- 3--|
D|-- 2---------------- 2----------|---- 4---- 4-------- 4-- 4-- 4--|
A|---------------- 0--------------|------------------------------ 2|
E|--------------------------------| 2-------------- 2--------------|
http://classicalguitartablature.blogspot.com/
E|-------------------------- 3----|-- 3-- 3-- 2--------------------|
B|------------------ 3-- 3---- 0--|-- 0-- 0-- 0------------ 3-- 5--|
G|-- 4-------- 4---- 4-- 4---- 0--|-- 0-- 0------------------------|
D|-------- 4-------- 4-- 4--------|------------------ 0------------|
A|-------------- 2----------------|--------------------------------|
E|--------------------------------| 0------------ 0----------------|
http://classicalguitartablature.blogspot.com/
E|--------------------------------|------ 2------ 2-------------- 7|
B|------------ 5-------------- 5--|------ 2-- 6-- 2-- 6---- 7---- 7|
G|-------- 2-------------- 2------|-------------- 3-------------- 7|
D|---- 2-------------- 2----------|---- 4--------------------------|
A| 0-------------- 0--------------|------------------------------10|
E|--------------------------------| 2-------------- 2--------------|
http://classicalguitartablature.blogspot.com/
E|-- 7----------------------------|-------------------------- 5----|
B|-- 7-- 7-- 7--10--10---------- 7|-- 7---------------------- 3----|
G|-- 7-------------------- 9 9-- 7|------ 7-- 7-- 9------ 7-- 2----|
D|--------------------------------|------------------ 9------------|
A|------------------------------10|--------------------------------|
E|--------------------------------|--------------------------------|
http://classicalguitartablature.blogspot.com/
E|--------------------------------|--------------------------------|
B|--------------------------------|--------------------------------|
G|--------------------------------|--------------------------------|
D| 4------------------------------|--------------------------------|
A| 2------------------------------|--------------------------------|
E|--------------------------------|--------------------------------|
http://classicalguitartablature.blogspot.com/
0 com

Never Ending Story (BASIC)

Limahl's theme song fingerstyle chord melody guitar BASIC arrangement played in the key of C.

Never Ending Story-Limahl-BASIC ARRANGEMENT played in the key of C.
http://classicalguitartablature.blogspot.com/
E|--------------------------------|------------------------------ 0|
B|-------- 1------------ 1--------|------ 1-------------- 1--------|
G|-------- 0------------ 0--------|------ 0---------------- 0------|
D|---- 2-- 2------------ 2--------|------ 2---------------- 2------|
A| 3-- 3-- 3-- 3-- 3 3-- 3-- 3-- 3|-- 3---- 3 3-- 3---- 3-- 3-- 3--|
E|--------------------------------|--------------------------------|
http://classicalguitartablature.blogspot.com/
E|--------------------------------|---------------------- 0-- 1-- 3|
B| 1------ 1------------------ 1--|---------- 1-- 1-- 3---------- 3|
G| 0---------- 0-- 0------ 0------|------ 0------ 0----------------|
D|---- 2------------ 2------------|---- 0-------- 0----------------|
A| 3-------------- 3--------------|--------------------------------|
E|--------------------------------| 3------------ 3----------------|
http://classicalguitartablature.blogspot.com/
http://classicalguitartablature.blogspot.com/
E|------------ 3---- 1-- 0-- 1----|-- 0------ 0------------------ 0|
B|------ 3---------- 3-------- 1--|------ 3------------ 3 1--------|
G|---- 2--------------------------|-------------------- 0 0--------|
D|--------------------------------|--------------------------------|
A|--------------------------------|--------------------------------|
E| 1-------------- 1------------ 0|---------------- 3--------------|
http://classicalguitartablature.blogspot.com/
E|--------------------------------|---------------------- 0-- 1-- 3|
B| 1------ 1------------------ 1--|---------- 1-- 1-- 3---------- 3|
G| 0---------- 0-- 0------ 0------|------ 0------ 0----------------|
D|---- 2------------ 2------------|---- 0-------- 0----------------|
A| 3-------------- 3--------------|--------------------------------|
E|--------------------------------| 3------------ 3----------------|
http://classicalguitartablature.blogspot.com/
E|------------ 3---- 1-- 0-- 1----|-- 0------ 0--------------------|
B|------ 3---------- 3-------- 1--|------ 3------------ 3 1--------|
G|---- 2--------------------------|-------------------- 0 0--------|
D|--------------------------------|--------------------------------|
A|--------------------------------|--------------------------------|
E| 1-------------- 1------------ 0|---------------- 3--------------|
http://classicalguitartablature.blogspot.com/
E|---------------------- 6--------|--------------------------------|
B| 8---- 8------ 8------------ 9--|---- 8---------------------- 6--|
G| 8------ 8------ 8--------------|---- 8------ 8---------- 8------|
D|---- 8------ 8---- 8------------|-------- 8---------- 8----------|
A| 6-------------- 6--------------| 6-------------- 6--------------|
E|--------------------------------|--------------------------------|
http://classicalguitartablature.blogspot.com/
E| 3---- 3------ 3------ 4--------|--------------------------------|
B| 1---- 1------ 1------------ 6--|---------- 6------------------ 8|
G|---- 1---- 1-- 1-- 1------------|------ 3-------------- 3------ 8|
D|--------------------------------|---- 3------------ 3-------- 3--|
A|--------------------------------|------------------------------ 6|
E| 4-------------- 4--------------| 6-------------- 6--------------|
http://classicalguitartablature.blogspot.com/
E|---------------------- 6--------|------------------------------ 3|
B|------ 8------ 8---------- 9----|-- 8------ 8--------------------|
G|------ 8------ 8---------- 8----|-- 8------------------ 8--10----|
D|-- 8------ 8------ 8------ 8----|------ 8---------- 8------------|
A|-------------- 6----------------|--------------------------------|
E|------------------------------ 8|-------------- 8----------------|
http://classicalguitartablature.blogspot.com/
E|------ 3------ 3------ 4--------|--------------------------------|
B| 1---- 1------ 1------------ 6--|---- 6------ 4------ 3----------|
G|-- 1------ 1------ 1------------|---- 3---------------------- 3--|
D|--------------------------------|-------- 3-------------- 3------|
A|--------------------------------|--------------------------------|
E| 4-------------- 4--------------| 6-------------- 6--------------|
http://classicalguitartablature.blogspot.com/
E|------------ 3-- 3--------------|------------------ 1-- 0-- 1----|
B| 1-------------------------- 1--|---------- 1------ 1-- 1---- 1--|
G| 0 0---- 0-------------- 0------|-------- 0------------------ 2--|
D|---- 2-------------- 2----------|---- 0--------------------------|
A| 3-------------- 3--------------|--------------------------------|
E|--------------------------------| 3------------ 3----------------|
http://classicalguitartablature.blogspot.com/
E|---- 0------ 0------------------|-------------- 0-- 1-- 0--------|
B|---- 1-- 3-- 1------ 3-- 1-- 3--|------------ 3 3-- 3-- 3-- 3----|
G|---- 2-- 2-- 2------ 2-- 2------|-------- 0---- 0-- 0-- 0--------|
D|-------- 3-------------- 2------|---- 0--------------------------|
A|---------------- 0--------------|--------------------------------|
E| 1------------------------------| 3-------------- 3--------------|
http://classicalguitartablature.blogspot.com/
E|------------ 3-- 3--------------|------------------ 1-- 0-- 1----|
B| 1-------------------------- 1--|---------- 1------ 1-- 1---- 1--|
G| 0 0---- 0-------------- 0------|-------- 0------------------ 2--|
D|---- 2-------------- 2----------|---- 0--------------------------|
A| 3-------------- 3--------------|--------------------------------|
E|--------------------------------| 3------------ 3----------------|
http://classicalguitartablature.blogspot.com/
E|---- 0------ 0------------------|-------------- 0-- 1-- 0--------|
B|---- 1-- 3-- 1------ 3-- 1-- 3--|------------ 3 3-- 3-- 3-- 3----|
G|---- 2-- 2-- 2------ 2-- 2------|-------- 0---- 0-- 0-- 0------ 8|
D|-------- 3-------------- 2------|---- 0--------------------------|
A|---------------- 0--------------|------------------------------ 6|
E| 1------------------------------| 3-------------- 3--------------|
http://classicalguitartablature.blogspot.com/
E|------------ 6-- 6--------------|---------------------------- 4--|
B|---------------- 8---------- 8--|------------ 6------ 9-- 8-- 1--|
G|-------- 8-------------- 8------|-------- 7---------- 7-- 7-- 1--|
D|---- 8-------------- 8----------|---- 8--------------------------|
A|---------------- 6--------------|--------------------------------|
E|--------------------------------| 6------------ 6----------------|
http://classicalguitartablature.blogspot.com/
E|---- 3-- 1-- 3------------ 3----|-------------- 3-- 4-- 3--------|
B|---- 1-- 1-- 4------ 6-- 4-- 6--|---------- 6-- 6-- 6------ 6----|
G|---- 1-- 1---------- 3-- 3------|------ 3------ 3-- 3---------- 8|
D|---------- 5-------- 5-- 5------|---- 3--------------------------|
A|---------------- 3--------------|------------------------------ 6|
E| 4------------------------------| 6------------ 6----------------|
http://classicalguitartablature.blogspot.com/
E|------------ 6-- 6--------------|---------------------------- 4--|
B|---------------- 8---------- 8--|------------ 6------ 9-- 8-- 1--|
G|-------- 8-------------- 8------|-------- 7---------- 7-- 7-- 1--|
D|---- 8-------------- 8----------|---- 8--------------------------|
A|---------------- 6--------------|--------------------------------|
E|--------------------------------| 6------------ 6----------------|
http://classicalguitartablature.blogspot.com/
E|---- 3-- 1-- 3------------ 3----|-------------- 3-- 4-- 3--------|
B|---- 1-- 1-- 4------ 6-- 4-- 6--|---------- 6-- 6-- 6------ 6----|
G|---- 1-- 1---------- 3-- 3------|------ 3------ 3-- 3---------- 8|
D|---------- 5-------- 5-- 5------|---- 3------------------------ 8|
A|---------------- 3--------------|------------------------------ 6|
E| 4------------------------------| 6------------ 6----------------|
http://classicalguitartablature.blogspot.com/
E|---------- 6---- 6--------------|--------------------------------|
B|---------- 8---- 8--------------|--------------------------------|
G|---------- 8---- 8--------------|--------------------------------|
D|--------------------------------|--------------------------------|
A|--------------------------------|--------------------------------|
E|--------------------------------|--------------------------------|
http://classicalguitartablature.blogspot.com/
0 com

Love The Way You Lie (BASIC)

Rihanna's song fingerstyle chord melody guitar BASIC arrangement played in the key of Em.

Love The Way You Lie-Rihanna-BASIC ARRANGEMENT played in the key of Em.
http://classicalguitartablature.blogspot.com/
E|--------------------------------|--------------------------------|
B|------------ 3------------------| 0------------------ 0------ 1--|
G|------ 0------------ 0 0---- 2--| 0------ 0------ 0--------------|
D| 4-- 4--------------------------|-- 2-------- 2------------ 2----|
A|--------------------------------|--------------------------------|
E| 0------------------------------| 0------------------------------|
http://classicalguitartablature.blogspot.com/
E|--------------------------------|--------------------------------|
B|---------------- 1------------ 0|------------------ 0------------|
G|---- 0---- 0-------- 0---- 2----| 0---- 0------ 0---------- 2----|
D|-------- 2----------------------|-- 0------ 0------------------ 4|
A| 3------------------------------|------------------------------ 5|
E|--------------------------------| 3------------------------------|
http://classicalguitartablature.blogspot.com/
http://classicalguitartablature.blogspot.com/
E|--------------------------------|--------------------------------|
B|------------ 3------------------| 0------------------ 0------ 1--|
G|------ 2------------ 0 0-- 2----| 0------ 0------ 0--------------|
D|---- 4--------------------------|-- 2-------- 2------------ 2----|
A|--------------------------------|--------------------------------|
E|--------------------------------| 0------------------------------|
http://classicalguitartablature.blogspot.com/
E|--------------------------------|--------------------------------|
B|---------------- 1------------ 0|------------------ 0------------|
G|---- 0---- 0-------- 0---- 2----| 0---- 0------ 0---------- 2----|
D|-------- 2----------------------|-- 0------ 0------------------ 4|
A| 3------------------------------|------------------------------ 5|
E|--------------------------------| 3------------------------------|
http://classicalguitartablature.blogspot.com/
E|--------------------------------|---- 3------ 3-------- 3--------|
B|------------ 3------------------| 0-- 0------ 0-------------- 0--|
G|------ 2------------ 0 0-- 2----| 0-- 0-------------- 0----------|
D|---- 4--------------------------| 2---- 2-------- 2--------------|
A|--------------------------------|--------------------------------|
E|--------------------------------| 0------------------------------|
http://classicalguitartablature.blogspot.com/
E|---- 3---- 3---------- 3--------|-- 3-------- 3-------- 3--------|
B| 1-- 1------ 1------------ 1-- 0|---- 0------ 0-------------- 0--|
G|---- 0------------ 0---------- 0|-------------------- 0-------- 2|
D| 2------ 2------ 2------------ 0|-------- 0------ 0--------------|
A| 3------------------------------|------------------------------ 5|
E|------------------------------ 3|--------------------------------|
http://classicalguitartablature.blogspot.com/
E|---- 5------ 5------------------|--------------------------------|
B|---- 3------ 3------------------| 0------------------ 0------ 1--|
G|-------- 2---------- 0 0-- 2----| 0------ 0------ 0--------------|
D|--------------------------------|-- 2-------- 2------------ 2----|
A|---------------- 5--------------|--------------------------------|
E|--------------------------------| 0------------------------------|
http://classicalguitartablature.blogspot.com/
E|--------------------------------|--------------------------------|
B|---------------- 1--------------| 0------------------ 0----------|
G|---- 0---- 0-------- 0---- 2----| 0---- 0-------- 0-------- 2----|
D|-------- 2----------------------|-- 0-------- 0------------------|
A| 3------------------------------|------------------------------ 5|
E|------------------------------ 3|--------------------------------|
http://classicalguitartablature.blogspot.com/
E|------------------ 0-- 0------ 7|------ 0------ 7-- 0-------- 0--|
B|---------- 3------ 3-- 3-- 3----| 0-- 0---- 3-- 0-- 0-------- 1--|
G|------ 2-- 2------ 2-- 2-- 2----|-- 0------ 0-- 0-- 0-------- 0--|
D|-- 4---------------------- 4----|--------------------------------|
A|--------------------------------|--------------------------------|
E|--------------------------------| 0---------- 0 0----------------|
http://classicalguitartablature.blogspot.com/
E|--------------------------------|--------------------------------|
B|-- 3------ 3------ 1---- 1 1-- 1|-- 0------ 1---- 1 0-- 0--------|
G|---- 0-- 0 0------ 0---- 0 0-- 0|-- 0------ 0---- 0 0-- 0-- 2 2--|
D|---- 2-- 2 2------ 2------ 2-- 0|------ 0---- 0-- 0-- 0----------|
A| 3---------- 3------------------|------------------------------ 5|
E|------------------------------ 3|------------ 3------------------|
http://classicalguitartablature.blogspot.com/
E|------------------ 0-- 0------ 7|------ 0------ 7-- 0-------- 0--|
B|---------- 3------ 3-- 3-- 3----| 0-- 0---- 3-- 0-- 0-------- 1--|
G|---- 2---- 2------ 2-- 2--------|-- 0------ 0-- 0-- 0-------- 0--|
D|---- 4---- 4--------------------|--------------------------------|
A|---------- 5--------------------|--------------------------------|
E|--------------------------------| 0---------- 0 0----------------|
http://classicalguitartablature.blogspot.com/
E|--------------------------------|--------------------------------|
B|-- 3------ 3------ 1---- 1 1-- 1|-- 0------ 1---- 1 0-- 0--------|
G|---- 0-- 0 0------ 0---- 0 0-- 0|-- 0------ 0---- 0 0-- 0-- 2 2--|
D|---- 2-- 2 2------ 2------ 2-- 0|------ 0---- 0-- 0-- 0----------|
A| 3---------- 3------------------|------------------------------ 5|
E|------------------------------ 3|------------ 3------------------|
http://classicalguitartablature.blogspot.com/
E|--------------------------------|--------------------------------|
B|------------------ 0-- 0--------|---- 0------ 0------ 0----------|
G|---- 2---- 2-- 5-------- 2 0----|---- 0------ 0------ 0----------|
D|---- 4---- 4--------------------|------ 2---- 2------ 2----------|
A|---------- 5--------------------|--------------------------------|
E|------------------------------ 0|------------ 0-------------- 0--|
http://classicalguitartablature.blogspot.com/
E|--------------------------------|--------------------------------|
B|-------------- 1-- 0-- 0--------|--------------------------------|
G|---- 0---- 0-- 0-- 0---- 2 0----|---------- 0-------- 0----------|
D|------ 2-- 2-- 2-- 2------------|------------ 0------ 0----------|
A| 3---------- 3------------------|--------------------------------|
E|------------------------------ 3|------ 3---- 3-------------- 3--|
http://classicalguitartablature.blogspot.com/
E|--------------------------------|--------------------------------|
B|--------------------------------|------ 3---------- 3------ 0----|
G| 2---- 2---- 2-------- 2-- 0----|-- 0---------- 0-------------- 2|
D| 4---- 4---- 4---- 4---------- 4|---------- 4---------- 4--------|
A| 5---------- 5------------------|--------------------------------|
E|--------------------------------| 0---------------------------- 0|
http://classicalguitartablature.blogspot.com/
E|------ 0---------- 0------------|--------------------------------|
B|-- 0---------- 0----------------|------ 3---------- 3------ 0----|
G|---------- 2---------- 2-- 0----|-- 0---------- 0-------------- 2|
D|------------------------------ 4|---------- 4---------- 4------ 2|
A|--------------------------------|--------------------------------|
E|--------------------------------| 0------------------------------|
http://classicalguitartablature.blogspot.com/
E|--------------------------------|--------------------------------|
B|--------------------------------|------ 3---------- 3------ 0----|
G|-- 4---------- 4------ 4--------|-- 0---------- 0-------------- 2|
D|---- 4-- 4-------- 4------ 5-- 4|---------- 4---------- 4--------|
A| 2------------------------------|--------------------------------|
E|--------------------------------| 0---------------------------- 0|
http://classicalguitartablature.blogspot.com/
E|------ 0---------- 0------------|--------------------------------|
B|-- 0---------- 0----------------|------ 3---------- 3------ 0----|
G|---------- 2---------- 2-- 0----|-- 0---------- 0----------------|
D|------------------------------ 4|---------- 4---------- 4--------|
A|--------------------------------|--------------------------------|
E|--------------------------------| 0------------------------------|
http://classicalguitartablature.blogspot.com/
E|------ 2------------ 0-- 0---- 7|------ 0------ 7-- 0-------- 0--|
B|-- 0-- 3-------------------- 3--| 0-- 0---- 3-- 0-- 0-------- 1--|
G| 2------ 2----------------------|-- 0------ 0-- 0-- 0-------- 0--|
D| 4------------------------------|--------------------------------|
A| 5------------------------------|--------------------------------|
E|--------------------------------| 0---------- 0 0----------------|
http://classicalguitartablature.blogspot.com/
E|--------------------------------|--------------------------------|
B|-- 3------ 3------ 1---- 1 1-- 1|-- 0------ 1---- 1 0-- 0--------|
G|---- 0-- 0 0------ 0---- 0 0-- 0|-- 0------ 0---- 0 0-- 0-- 2 2--|
D|---- 2-- 2 2------ 2------ 2-- 0|------ 0---- 0-- 0-- 0----------|
A| 3---------- 3------------------|------------------------------ 5|
E|------------------------------ 3|------------ 3------------------|
http://classicalguitartablature.blogspot.com/
E|------------------ 0-- 0------ 7|------ 0------ 7-- 0-------- 0--|
B|---------- 3------ 3-- 3-- 3----| 0-- 0---- 3-- 0-- 0-------- 1--|
G|---- 2---- 2------ 2-- 2--------|-- 0------ 0-- 0-- 0-------- 0--|
D|---- 4---- 4--------------------|--------------------------------|
A|---------- 5--------------------|--------------------------------|
E|--------------------------------| 0---------- 0 0----------------|
http://classicalguitartablature.blogspot.com/
E|--------------------------------|--------------------------------|
B|-- 3------ 3------ 1---- 1 1-- 1|-- 0------ 1---- 1 0-- 0--------|
G|---- 0-- 0 0------ 0---- 0 0-- 0|-- 0------ 0---- 0 0-- 0-- 2 2--|
D|---- 2-- 2 2------ 2------ 2-- 0|------ 0---- 0-- 0-- 0----------|
A| 3---------- 3------------------|------------------------------ 5|
E|------------------------------ 3|------------ 3------------------|
http://classicalguitartablature.blogspot.com/
E|--------------------------------|--------------------------------|
B|------------------ 0-- 0--------|---- 0------ 0------ 0----------|
G|---- 2---- 2-- 5-------- 2 0----|---- 0------ 0------ 0----------|
D|---- 4---- 4--------------------|------ 2---- 2------ 2----------|
A|---------- 5--------------------|--------------------------------|
E|------------------------------ 0|------------ 0-------------- 0--|
http://classicalguitartablature.blogspot.com/
E|--------------------------------|--------------------------------|
B|-------------- 1-- 0-- 0--------|--------------------------------|
G|---- 0---- 0-- 0-- 0---- 2 0----|---------- 0-------- 0-------- 2|
D|------ 2-- 2-- 2-- 2------------|------------ 0------ 0-------- 4|
A| 3---------- 3------------------|------------------------------ 5|
E|------------------------------ 3|------ 3---- 3-------------- 3--|
http://classicalguitartablature.blogspot.com/
E|--------------------------------|--------------------------------|
B|-------------------- 0-- 0------|------------------------ 3------|
G|---- 2---- 2---- 5---------- 2--| 0-------------- 0--------------|
D|---- 4--------------------------|---------- 4--------------------|
A|---------- 5--------------------|--------------------------------|
E|--------------------------------|---- 0--------------------------|
http://classicalguitartablature.blogspot.com/
0 com

Smurfs Theme Song (BASIC)

Smurfs' theme song fingerstyle chord melody guitar BASIC arrangement played in the key of G.

Smurfs Theme Song-BASIC ARRANGEMENT played in the key of G.
http://classicalguitartablature.blogspot.com/
E|--------------------------------|--------------------------------|
B|------------------ 0------ 0----|-------- 0-- 1 3-- 0---- 3 0----|
G| 0-------- 2---- 0------ 0------| 0------------ 5---- 5 5---- 5--|
D| 0---------- 0------ 0------ 0--|-------------- 4-------- 4------|
A|--------------------------------|-------------- 5-------- 5------|
E| 3------------------------------|--------------------------------|
http://classicalguitartablature.blogspot.com/
E|------------------------------ 3|------ 3------ 0----------------|
B| 3---- 3------ 3-------- 3------| 3---- 3---- 3 1---- 1-------- 3|
G| 5---- 5------ 5-------- 5------| 0---- 0---- 0 2---- 2 2------ 0|
D| 4---- 4------ 4-------- 4------|---- 0-------------- 2 4---- 4 0|
A| 5---- 5------ 5-------- 5------|---------------- 0------ 5------|
E|--------------------------------| 3------ 0-------------------- 3|
http://classicalguitartablature.blogspot.com/
http://classicalguitartablature.blogspot.com/
E|------------------------------ 3|------ 3------ 0----------------|
B|-- 0------ 0--------------------| 3---- 3---- 3 1---- 1-------- 3|
G|------ 0------ 2------------ 2--| 0---- 0---- 0 2---- 2 2------ 4|
D|------ 2------------ 2------ 4--|---- 0-------------- 2 4---- 4 5|
A|---------------- 0---- 5--------|---------------- 0------ 5------|
E|-------- 0----------------------| 3------ 0----------------------|
http://classicalguitartablature.blogspot.com/
E|------------------------------ 3|------ 3------ 0----------------|
B|-- 0----------------------------| 3---- 3---- 3 1---- 1-------- 3|
G|------ 5------ 0----------------| 0---- 0---- 0 2---- 2 2------ 0|
D|---------- 4-------- 0---- 0----|---- 0-------------- 2 4---- 4 0|
A| 5------ 0----------------------|---------------- 0------ 5------|
E|-------------- 3------ 3--------| 3------ 0-------------------- 3|
http://classicalguitartablature.blogspot.com/
E|------------------------------ 3|------ 3------ 0----------------|
B|-- 0------ 0--------------------| 3---- 3---- 3 1---- 1-------- 3|
G|------ 0------ 2------------ 2--| 0---- 0---- 0 2---- 2 2------ 4|
D|------ 2------------ 2------ 4--|---- 0-------------- 2 4-- 4-- 5|
A|---------------- 0---- 5--------|---------------- 0------ 5------|
E|-------- 0----------------------| 3------ 0----------------------|
http://classicalguitartablature.blogspot.com/
E|------------------------------ 0|-------- 0---- 0-- 2-- 3-- 0----|
B|-- 0-------------------------- 1|------ 1-- 3-- 1---------- 1-- 3|
G|------ 5------ 0----------------|-- 0-------------------------- 0|
D|---------- 4-------- 0---- 0----|--------------------------------|
A| 5------ 0----------------------| 3------------ 3----------------|
E|-------------- 3------ 3--------|------ 3-------------- 3------ 3|
http://classicalguitartablature.blogspot.com/
E|------------------------------ 0|---- 2 0------ 0-- 2-- 3-- 0-- 5|
B|---- 1 0-- 1-- 3-------------- 2|------ 2-- 3-- 2-- 2-- 2-- 2-- 5|
G|---- 0 0---- 0 0-------------- 0|------ 0------ 0------ 0-- 0-- 5|
D| 0---------- 0 0-- 0------ 0----|--------------------------------|
A|------------------------------ 0|-------------- 0-------------- 5|
E|-------- 3------ 3---- 3--------|-------- 0------------ 0--------|
http://classicalguitartablature.blogspot.com/
E|------------------------------ 3|------ 3------ 0----------------|
B|---- 8 7---- 5 3----------------| 3---- 3---- 3 1---- 1-------- 3|
G|------ 5---- 5 5----------------| 0---- 0---- 0 2---- 2 2------ 0|
D|------ 5---- 5 4-- 4-------- 4--|---- 0-------------- 2 4---- 4 0|
A|-------------- 5----------------|---------------- 0------ 5------|
E|------ 5-------------- 5--------| 3------ 0-------------------- 3|
http://classicalguitartablature.blogspot.com/
E|--------------------------------|------ 3------ 0------ 5------ 0|
B|-- 0------ 0--------------------| 3---- 3---- 3-- 1-- 1 5--------|
G|------ 0------ 2------------ 2--| 0---- 0---- 0-- 2-- 2 5------ 2|
D|------ 2------------ 2------ 4--|---- 0-------- 2---- 2 5---- 5--|
A|---------------- 0---- 5--------|---------------- 0---- 5--------|
E|-------- 0----------------------| 3------ 0----------------------|
http://classicalguitartablature.blogspot.com/
E|--------------------------------|------------------------------ 3|
B| 1------------ 1-------------- 7|------------------------------ 3|
G|-------------- 2-------------- 7|-------------- 7-------------- 4|
D|---- 2------ 2---- 2------ 2----|-- 7------ 7---- 5 5------ 5----|
A| 0------------------------------|--------------------------------|
E|------ 3------ 2------ 0------10|------ 8------ 7-------- 5---- 3|
http://classicalguitartablature.blogspot.com/
E|-------------- 3----------------|--------------------------------|
B|-------------- 4-------------- 3|--------------------------------|
G|-------------- 3----------------| 4------------------------------|
D|-- 5------ 5-------- 5------ 5--| 5------------------------------|
A|-------------- 6------ 6--------|--------------------------------|
E|------ 3------------------------| 3------------------------------|
http://classicalguitartablature.blogspot.com/
0 com

The Harry Potter Theme Song (BASIC)

Harry Potter's tune fingerstyle chord melody guitar BASIC arrangement played in the key of Em.

The Harry Potter Theme Song-BASIC ARRANGEMENT played in the key of Em.
http://classicalguitartablature.blogspot.com/
E|------------------------|------------------------|
B| 1------------ 1------ 1|---------------------- 0|
G|---------- 0------------|-------------- 0--------|
D|------ 2----------------|------ 2----------------|
A|------------------------|------------------------|
E| 0-------------------- 0|---------------------- 0|
http://classicalguitartablature.blogspot.com/
E|------------------------|------------------------|
B|-------------- 0------ 0|---------------------- 1|
G|---------- 0------------|-------------- 0--------|
D|------ 2----------------|------ 2----------------|
A|------------------------|------------------------|
E|---------------------- 0|---------------------- 0|
http://classicalguitartablature.blogspot.com/
http://classicalguitartablature.blogspot.com/
E|------------------------|------------------------|
B|-------------- 1------ 1|---------------------- 0|
G|---------- 0------------|---------------- 0------|
D|------ 2----------------|------ 2----------------|
A|------------------------|------------------------|
E|---------------------- 0|------------------------|
http://classicalguitartablature.blogspot.com/
E|------------------------|---------------------- 0|
B|---------------- 0------|-------------- 0--------|
G|------------ 0----------|------------------------|
D|------ 2----------------|------ 2----------------|
A|------------------------|------------------------|
E| 0-------------------- 0|------------------------|
http://classicalguitartablature.blogspot.com/
E|-------------- 3-- 2-- 0|-------------- 7--------|
B|---------- 0---------- 0|---------------------- 5|
G|------ 0----------------|-------- 0--------------|
D|------------------------|------------------------|
A|------------------------|------------------------|
E| 0----------------------| 0----------------------|
http://classicalguitartablature.blogspot.com/
E| 5------------ 5------ 2|-------------- 2------ 0|
B|---------- 5---------- 1|---------------------- 0|
G|------ 5----------------|------ 0----------------|
D|------------------------|------------------------|
A|------------------------|---------------------- 2|
E| 0----------------------| 0----------------------|
http://classicalguitartablature.blogspot.com/
E|-------------- 3-- 2----|-------------- 1--------|
B|---------- 0------------| 4----------------------|
G|------ 0----------------| 2-------- 2------------|
D|------------------------|------ 4----------------|
A|------------------------|------------------------|
E|------------------------| 2----------------------|
http://classicalguitartablature.blogspot.com/
E|------------------------|---------------------- 0|
B| 0----------------------|-------------- 0--------|
G|---------- 2------------|-------------- 2--------|
D|------ 1------ 1--------|-------- 1--------------|
A| 2-------------------- 2|------------------------|
E|------------------------|------------------------|
http://classicalguitartablature.blogspot.com/
E|-------------- 3-- 2-- 0|-------------- 7------10|
B|---------- 0------------|---------- 0----------11|
G|------ 0----------------|------ 0--------------12|
D|------------------------|------------------------|
A|------------------------|----------------------10|
E| 0-------------------- 0|------------------------|
http://classicalguitartablature.blogspot.com/
E|-------------- 9------ 8|---------------------- 8|
B|---------------------- 9|-------------- 9------10|
G|----------12------------|----------10------------|
D|------12----------------|------10----------------|
A|---------------------- 8|---------------------- 7|
E|------------------------|------------------------|
http://classicalguitartablature.blogspot.com/
E|-------------- 7-- 6----|-------------- 3------ 0|
B|----------10------------|-------------- 2------ 0|
G|------ 9-------------- 3|---------- 3------------|
D|------------------------|------ 2----------------|
A|------------------------|------------------------|
E|---------------------- 0|---------------------- 0|
http://classicalguitartablature.blogspot.com/
E|------------------------|-------------- 3------ 7|
B|-------------- 0--------|---------------------- 8|
G|---------- 0------ 0----|---------------------- 9|
D|-------- 2--------------|-------- 2--------------|
A|------------------------|------------------------|
E|------------------------| 0-------------------- 0|
http://classicalguitartablature.blogspot.com/
E|------------------------| 7-------------------- 8|
B|---------------- 8------| 8------------ 8------ 8|
G|---------- 9------------|---------- 9------------|
D|------ 9----------------|-------- 9--------------|
A|------------------------|------------------------|
E|------------------------| 0----------------------|
http://classicalguitartablature.blogspot.com/
E|---------------- 7---- 6|------------------------|
B|---------------------- 8|-------------- 7------ 8|
G| 9-------- 9---------- 6|---------- 6---------- 9|
D|------10----------------|------ 8----------------|
A|------------------------|------------------------|
E| 0----------------------| 0----------------------|
http://classicalguitartablature.blogspot.com/
E|-------------- 7-- 6----|------------------------|
B|------------------------|-------------- 0--------|
G|---------- 9------------| 3-------- 3------------|
D|-------- 9--------------|------ 2----------------|
A|------------------------|------------------------|
E| 0----------------------| 0----------------------|
http://classicalguitartablature.blogspot.com/
E| 7----------------------|---------------------- 7|
B| 8------------ 8--------|-------------- 8------ 8|
G| 9-------- 9------ 9----|---------- 9---------- 9|
D|------ 9----------------|-------- 9--------------|
A|------------------------|------------------------|
E| 0----------------------| 0----------------------|
http://classicalguitartablature.blogspot.com/
E|---------------------- 7|----------------------10|
B|-------------- 8------ 8|-------------- 8------11|
G|---------- 9------------|---------- 9----------12|
D|------ 9----------------|-------- 9--------------|
A|------------------------|----------------------10|
E| 0-------------------- 0|------------------------|
http://classicalguitartablature.blogspot.com/
E|-------------- 9------ 8|---------------------- 8|
B|---------------------- 9|-------------- 9------10|
G|----------12------------|----------10------------|
D|------12----------------|------10----------------|
A|---------------------- 8|---------------------- 7|
E|------------------------|------------------------|
http://classicalguitartablature.blogspot.com/
E|-------------- 7-- 6----|-------------- 3------ 0|
B|----------10------------|---------------------- 0|
G|------ 9-------------- 3|---------- 3------------|
D|------------------------|-------- 2--------------|
A|------------------------|------------------------|
E|---------------------- 0|---------------------- 0|
http://classicalguitartablature.blogspot.com/
E|------------------------|-------------- 3--------|
B|-------------- 0--------|------------------------|
G|---------- 0------ 0----|---------------------- 9|
D|------ 2----------------|------ 2----------------|
A|------------------------|------------------------|
E|------------------------| 0-------------------- 0|
http://classicalguitartablature.blogspot.com/
E| 7----------------------| 7--------------------10|
B| 8------------ 8--------| 8------------ 8------11|
G|-------------- 9--------|------------------------|
D|-------- 9--------------|-------- 9--------------|
A|------------------------|----------------------10|
E|------------------------|------------------------|
http://classicalguitartablature.blogspot.com/
E|-------------- 9------ 8|---------------------- 8|
B|---------------------- 9|-------------- 9------10|
G|12--------------------10|------------------------|
D|------12----------------|------10----------------|
A|---------------------- 8|------------------------|
E|------------------------|------------------------|
http://classicalguitartablature.blogspot.com/
E|---------------- 7-- 6--|------------------------|
B|------------10----------|------------------------|
G|-------- 9--------------|-- 3-------------- 3----|
D|------------------------|------------ 2----------|
A| 7----------------------|-- 1--------------------|
E|------------------------|------------------------|
http://classicalguitartablature.blogspot.com/
E| 3------------------ 0--|------------------------|
B| 2------------------ 2--|------------------------|
G| 3---------------- 0----|------------------------|
D|------------------------|------------------------|
A|------------------------|------------------------|
E|---------------- 0------|------------------------|
http://classicalguitartablature.blogspot.com/
0 com

My Eyes Adored You (BASIC)

Frankie Valli's tune fingerstyle chord melody guitar BASIC arrangement played in the key of G.

My Eyes Adored You-Frankie Valli-BASIC ARRANGEMENT played in the key of G.
http://classicalguitartablature.blogspot.com/
E| 6------------ 6----------------|--------------------------------|
B| 6---- 6------------------------|---------- 0 3---------- 3 0 1 3|
G| 5-- 5---- 5--------------------|---- 0-------------- 2---- 2 2 5|
D|-- 4-------- 4------------------| 0 0---------------- 0-------- 3|
A|--------------------------------|---------------- 2------------ 5|
E| 4------------------------------| 3------------------------------|
http://classicalguitartablature.blogspot.com/
E|--------------------------------|--------------------------------|
B|-- 3-- 3 1-- 0------------------| 1-- 0-------- 1-- 0------------|
G| 5---- 2 2-- 2 2-- 0-------- 0--| 0---- 0-------------- 0---- 0--|
D|-- 3-- 3 3-- 3 2---------- 2----| 2-------- 2-------------- 2----|
A|-------------- 3-------- 3------| 0-------------- 0--------------|
E|------ 3------------------------|--------------------------------|
http://classicalguitartablature.blogspot.com/
http://classicalguitartablature.blogspot.com/
E|--------------------------------|------------------------------ 0|
B| 1-- 0--------------------------|-------- 0-- 3-------- 3-- 0 3 6|
G| 2------ 2 0 2------ 2----------|------ 0------------ 2-------- 5|
D| 3------ 2---- 4-- 4---- 4---- 2| 2 2 2------------ 0------------|
A|-------------- 5---------- 5----|---------------- 2------------ 5|
E| 1------ 0-------------------- 0|--------------------------------|
http://classicalguitartablature.blogspot.com/
E|-- 0----------------------------|--------------------------------|
B| 6 6-- 3-- 0------------ 0------| 1-- 0------ 1---- 0---------- 1|
G| 5 5-- 2-- 2 2-- 0---- 0---- 0--| 0---- 0------------ 0------ 0 2|
D| 3---- 3-- 3-------- 2---- 2-- 2|---------- 2-------------- 2-- 3|
A|---------------- 3--------------| 0------------ 0----------------|
E|-------- 3----------------------|------------------------------ 1|
http://classicalguitartablature.blogspot.com/
E|--------------------------------|--------------------------------|
B|-- 0------------------------ 3--|------------------ 0-- 0---- 0 0|
G|------ 2 0-- 2---------- 2------|------------------------------ 2|
D|------ 2------------ 4----------| 4---------------------------- 2|
A|-------------- 5----------------|------------------------------ 0|
E|------ 0------------------------|--------------------------------|
http://classicalguitartablature.blogspot.com/
E|--------------------------------|--------------------------------|
B|------ 0---------------- 0-- 0--|---- 0---- 0---- 0-- 0---- 3 0--|
G| 2-------- 2-------- 2---- 2-- 5|-- 5-- 5---- 5---- 5-- 5--------|
D|---- 2------ 2---- 2------------| 4------------------------------|
A|-------------- 0----------------| 5------------ 5----------------|
E|--------------------------------|--------------------------------|
http://classicalguitartablature.blogspot.com/
E|--------------------------------|--------------------------------|
B|--------------------------------|------------------------------ 0|
G| 2-- 0---------------- 0 0-- 2 4| 3 4 3 4-- 3 4---- 3 3 4 5-- 4 2|
D| 0------ 0-------- 0---------- 0|------------ 3---- 3 3 3--------|
A|--------------------------------|------------------------------ 0|
E| 3------------ 3 3------------ 3|---------------- 4--------------|
http://classicalguitartablature.blogspot.com/
E|--------------------------------|--------------------------------|
B|---------------------------- 0 0|---- 0---- 0------ 0------------|
G|-- 2-------------------- 2 2----| 5 5-- 5---- 5-------- 2--------|
D|------ 2---------- 2------------| 4-------------------------- 2 2|
A|------------ 0 0----------------| 5------------ 5-------------- 3|
E|--------------------------------|--------------------------------|
http://classicalguitartablature.blogspot.com/
E|--------------------------------| 3------------------------------|
B|------------------ 5------------| 3------------------------------|
G| 2 0---------- 5-- 5------------| 0------------------------------|
D|------------ 0 5-- 5------------| 0------------------------------|
A|-------- 2------ 5-- 5----------|--------------------------------|
E|------------------------------ 3|--------------------------------|
http://classicalguitartablature.blogspot.com/
0 com

The Great Commandment (BASIC)

The Camouflage's song fingerstyle chord melody guitar BASIC arrangement played in the key of Am.

The Great Commandment-The Camouflage-BASIC ARRANGEMENT played in the key of Am.
http://classicalguitartablature.blogspot.com/
E|--------------------------------|------ 0------------------------|
B|------ 1------------------------| 1-------- 1-------- 1------ 1--|
G| 2---------- 2------ 2---- 2----| 2-------- 2-------- 2------ 2--|
D|-- 2-------------------- 2------|-- 3------------------ 3--------|
A| 0-------------- 0--------------|--------------------------------|
E|--------------------------------| 1------------ 1----------------|
http://classicalguitartablature.blogspot.com/
E|--------------------------------|--------------------------------|
B|--------------------------------|-------- 0----------------------|
G|-------- 2----------------------| 0-------- 0------ 0------ 0----|
D| 3---------- 3------ 3------ 3--|---- 0---------------- 0--------|
A| 5-------------- 5--------------|--------------------------------|
E|--------------------------------| 3------------ 3----------------|
http://classicalguitartablature.blogspot.com/
http://classicalguitartablature.blogspot.com/
E| 0------------------------------|------ 0------------------------|
B|------ 1------------------------| 1-------- 1-------- 1------ 1--|
G|---------- 2------ 2------ 2----| 2-------- 2-------- 2------ 2--|
D|---- 2---------------- 2--------|-- 3------------------ 3--------|
A| 0-------------- 0--------------|--------------------------------|
E|--------------------------------| 1------------ 1----------------|
http://classicalguitartablature.blogspot.com/
E|--------------------------------|--------------------------------|
B|--------------------------------|-------- 0----------------------|
G|-------- 2----------------------| 0-------- 0------ 0------ 0-- 0|
D| 3---------- 3------ 3------ 3--|---- 0---------------- 0------ 0|
A| 5-------------- 5--------------|--------------------------------|
E|--------------------------------| 3------------ 3-------------- 3|
http://classicalguitartablature.blogspot.com/
E|--------------------------------|-------------- 0------ 0--------|
B|-------------- 1------ 1-- 0----|-------------------------- 3----|
G|--------------------------------|-- 2------ 2------------------ 2|
D|------------ 2------------------|------ 2---------- 2------------|
A|------------------------------ 0|-------------- 0----------------|
E|--------------------------------|------------------------------ 1|
http://classicalguitartablature.blogspot.com/
E|-- 0----------------------------|--------------------------------|
B|---------------------- 1---- 3--|---- 3-- 3 3-- 3-- 3-- 5---- 3--|
G|---------- 2---------------- 5--|-------- 5 5-- 5------ 5--------|
D|-------- 3-------- 3-------- 3--|---- 3-- 3 3-- 3-- 3-- 3--------|
A|--------------------------------| 5------------ 5----------------|
E|---------------- 1--------------|------------------------------ 3|
http://classicalguitartablature.blogspot.com/
E|--------------------------------|-------------- 0------ 0--------|
B|-------------- 1------ 1-- 0----|-------------------------- 3----|
G|--------------------------------|-- 2------ 2------------------ 2|
D|-- 3------ 2--------------------|------ 2---------- 2------------|
A|------------------------------ 0|-------------- 0----------------|
E|-------------- 3----------------|------------------------------ 1|
http://classicalguitartablature.blogspot.com/
E|-- 0----------------------------|--------------------------------|
B|---------------------- 1---- 3--|---- 3-- 3 3-- 3-- 3-- 5-- 3----|
G|---------- 2---------------- 5--|-------- 5 5-- 5------ 5-- 2----|
D|-------- 3-------- 3-------- 3--|---- 3-- 3 3-- 3-- 3-- 3-- 3----|
A|--------------------------------| 5------------ 5----------------|
E|---------------- 1--------------|--------------------------------|
http://classicalguitartablature.blogspot.com/
E|--------------------------------|--------------------------------|
B|-- 1-------------- 1------------|---------------- 1---- 1-- 0----|
G|-------------------------- 2----|--------------------------------|
D|---------- 3---------- 3--------|------------ 2------------------|
A|--------------------------------|------------------------------ 0|
E| 1------------ 1----------------| 1------------------------------|
http://classicalguitartablature.blogspot.com/
E|-------------- 0------ 0--------|-- 0----------------------------|
B|-------------------------- 3----|---------------------- 1---- 3--|
G|-- 2------ 2------------------ 2|---------- 2---------------- 5--|
D|------ 2---------- 2------------|-------- 3-------- 3-------- 3--|
A|-------------- 0----------------|--------------------------------|
E|------------------------------ 1|---------------- 1--------------|
http://classicalguitartablature.blogspot.com/
E|--------------------------------|--------------------------------|
B|---- 3-- 3 3-- 3-- 3-- 5---- 3--|-------------- 1------ 1-- 0----|
G|-------- 5 5-- 5------ 5--------|--------------------------------|
D|---- 3-- 3 3-- 3-- 3-- 3--------|-- 3------ 2--------------------|
A| 5------------ 5----------------|------------------------------ 0|
E|------------------------------ 3|-------------- 3----------------|
http://classicalguitartablature.blogspot.com/
E|-------------- 0------ 0--------|-- 0----------------------------|
B|-------------------------- 3----|---------------------- 1---- 3--|
G|-- 2------ 2------------------ 2|---------- 2---------------- 5--|
D|------ 2---------- 2------------|-------- 3-------- 3-------- 3--|
A|-------------- 0----------------|--------------------------------|
E|------------------------------ 1|---------------- 1--------------|
http://classicalguitartablature.blogspot.com/
E|--------------------------------|--------------------------------|
B|---- 3-- 3 3-- 3-- 3-- 5-- 3----|-- 1-------------- 1------------|
G|-------- 5 5-- 5------ 5-- 2----|-------------------------- 2----|
D|---- 3-- 3 3-- 3-- 3-- 3-- 3----|---------- 3---------- 3--------|
A| 5------------ 5----------------|--------------------------------|
E|--------------------------------| 1------------ 1----------------|
http://classicalguitartablature.blogspot.com/
E|--------------------------------|--------------------------------|
B|---------------- 1---- 1-- 0----|------ 1------------------------|
G|------------------------------ 2|-- 2------ 2-------- 2---- 2----|
D|------------ 2------------------|-------------------- 2---- 2----|
A|------------------------------ 0|-------------- 0----------------|
E| 1------------------------------|--------------------------------|
http://classicalguitartablature.blogspot.com/
E|------ 0------------------------|--------------------------------|
B| 1-------- 1-------- 1------ 1--|--------------------------------|
G| 2-------- 2-------- 2------ 2--|-------- 2----------------------|
D|-- 3------------------ 3--------| 3---------- 3------ 3------ 3--|
A|--------------------------------| 5-------------- 5--------------|
E| 1------------ 1----------------|--------------------------------|
http://classicalguitartablature.blogspot.com/
E|--------------------------------| 0------------------------------|
B|-------- 0----------------------|------ 1------------------------|
G| 0-------- 0------ 0------ 0----|---------- 2------ 2------ 2----|
D|---- 0---------------- 0--------|---- 2---------------- 2--------|
A|--------------------------------| 0-------------- 0--------------|
E| 3------------ 3----------------|--------------------------------|
http://classicalguitartablature.blogspot.com/
E|------ 0------------------------|--------------------------------|
B| 1-------- 1-------- 1------ 1--|--------------------------------|
G| 2-------- 2-------- 2------ 2--|-------- 2----------------------|
D|-- 3------------------ 3--------| 3---------- 3------ 3------ 3--|
A|--------------------------------| 5-------------- 5--------------|
E| 1------------ 1----------------|--------------------------------|
http://classicalguitartablature.blogspot.com/
E|--------------------------------|--------------------------------|
B|-------- 0----------------------|-------------- 1------ 1-- 0----|
G| 0-------- 0------ 0------ 0-- 0|--------------------------------|
D|---- 0---------------- 0------ 0|---------- 2--------------------|
A|--------------------------------|--------------------------------|
E| 3------------ 3----------------| 3------------------------------|
http://classicalguitartablature.blogspot.com/
E|--------------------------------|--------------------------------|
B|--------------------------------|--------------------------------|
G|-- 2----------------------------|--------------------------------|
D|---- 2--------------------------|--------------------------------|
A| 0------------------------------|--------------------------------|
E|--------------------------------|--------------------------------|
http://classicalguitartablature.blogspot.com/
0 com

Disney Anastasia - At The Beginning (BASIC)

Disney Anastasia theme song fingerstyle chord melody guitar BASIC arrangement played in the key of C.

At The Beginning-Anastasia-BASIC ARRANGEMENT played in the key of C.
http://classicalguitartablature.blogspot.com/
E| 3------------------------------|------ 0-- 1------------------ 0|
B| 1---------- 1------------ 1 1 1|---- 3------ 1------------ 1 3 1|
G| 2---- 2---------------- 2---- 0|------------ 2-------- 2------ 0|
D|---- 3-------------- 3-------- 2|---------- 3-------- 3----------|
A|------------------------------ 3|------------ 0------------------|
E| 3------------------------------|--------------------------------|
http://classicalguitartablature.blogspot.com/
E|--------------------------------|------ 0---- 1---- 0---------- 0|
B|------ 1---- 0------------ 1 1--| 1-- 3 1---- 1---- 1------ 1 3 1|
G|------ 0---- 0---------- 0------| 0---------- 2---- 2------------|
D|-------------------- 0----------| 2---------------------- 3------|
A| 3---------------------------- 3|------------ 0------------------|
E|------------ 3------------------|--------------------------------|
http://classicalguitartablature.blogspot.com/
http://classicalguitartablature.blogspot.com/
E|--------------------------------|------------------------------ 0|
B|------ 1------------------------|---- 1-- 0-- 1------------ 1 3 3|
G| 0---------- 2------------------|---- 0---------- 0------ 0---- 3|
D|------------ 3------------------|---- 2-------------- 2----------|
A| 3------------------------------| 3---------- 0---------------- 1|
E|------------ 1------------------|--------------------------------|
http://classicalguitartablature.blogspot.com/
E|-- 1-- 0------------------------|-------------------------- 3 3 3|
B|-- 3-- 3-- 3------ 1------------|-- 1-- 0-- 1------------------ 1|
G|-- 3-- 3-- 0------ 0------ 0----|-------------- 0------ 0------ 2|
D|---------- 0---------- 0--------|------------------ 2------------|
A|------------------------------ 3|---------- 0--------------------|
E|------------ 3------------------|------------------------------ 1|
http://classicalguitartablature.blogspot.com/
E|-------------------------- 3-- 5|------ 3------ 0-------------- 3|
B|-- 1-- 1-- 3------------------ 5|-------- 0---- 1---------- 1-- 1|
G|-- 2-- 2-- 0---------- 0------ 5|---- 0-------- 0------ 0------ 0|
D|-- 3-- 3-- 0------ 0------------|-------------------- 2----------|
A|--------------------------------|------ 2------ 3----------------|
E|---------- 3-------------- 3----| 5------------------------------|
http://classicalguitartablature.blogspot.com/
E|--------------------------------|-- 1-- 1-- 1-- 1-- 0------------|
B|-- 1-- 1------------------------|-- 3-- 3-- 3-- 3------ 3-- 3----|
G|-- 0-- 0---- 2------------------|-- 3-- 3-- 3-- 3-------------- 5|
D|---------- 3-------- 3----------|--------------------------------|
A|------------------------------ 1|--------------------------------|
E| 0---------- 1------------------|--------------------------------|
http://classicalguitartablature.blogspot.com/
E|--------------------------------|------------------ 5---------- 2|
B|------------ 3------------------|-- 3-- 2-- 3------ 3------ 3 5 0|
G|------ 5-------- 4--------------|-- 2---- 2 2-------- 2-------- 0|
D|---- 3--------------------------|-- 4---- 4-- 4-------- 4--------|
A|--------------------------------| 5---------- 2------------------|
E| 3------------------------------|------------------------------ 3|
http://classicalguitartablature.blogspot.com/
E|-- 3-- 2---- 0------------------|------------------ 5------ 5 5 5|
B|-- 0-- 0---- 0---- 3------------|-- 3-- 2-- 3------------------ 3|
G|---- 0 0---- 0---- 0------ 0----|-- 2-- 2-- 2------------------ 4|
D|---------------------- 0--------| 4 4-- 4-- 4---------- 4--------|
A|------------ 0---------------- 5|------------ 2------------------|
E|--------------------------------|------------------------------ 3|
http://classicalguitartablature.blogspot.com/
E|------ 0-- 0------------------ 7|------ 5------ 2-- 0---------- 5|
B|-- 3------ 0-------------- 3 3 7|------ 2------ 3---- 3---- 3 3 3|
G|---------------------- 0------ 7|------ 2------ 2----------------|
D|---------- 0------ 0------------|-------------- 4----------------|
A|---------- 0--------------------|------ 4------ 5----------------|
E|------------------------------ 7|--------------------------------|
http://classicalguitartablature.blogspot.com/
E|---------- 3-------- 5-------- 3|-- 2-- 3-- 2------ 0------------|
B|---- 3-- 3-------------------- 1|-- 1-- 1-- 1------ 1-------- 1--|
G| 2-- 2-- 2-- 4------------ 4-- 0|-- 0-- 0-- 0---------- 0--------|
D|---- 4-- 4-- 5---------- 5------|--------------------------------|
A|------------------------------ 3|------------------------------ 0|
E| 2---------- 3------------------|--------------------------------|
http://classicalguitartablature.blogspot.com/
E|---------------------- 5------ 5|---------------------- 0-- 2-- 5|
B|------------ 2-------- 2------ 3|-- 3 3 3---- 3 3---- 3 3-- 3----|
G|------ 2---------------------- 2|-- 2 2 2-- 2 2 2-- 2------------|
D|---- 2------------ 2------------|--------------------------------|
A|------------------------------ 5|------------ 5------------------|
E|--------------------------------|--------------------------------|
http://classicalguitartablature.blogspot.com/
E|------------------------ 0-- 2--| 5------------------------ 2-- 2|
B| 3 3 3-- 3-- 3 3 3-- 3-- 0-- 0--| 3 3 3 3------ 3 3 3 3 5-- 3-- 3|
G| 0 0 0 0---- 0 0 0-- 0------ 0--| 2 2 2 2------ 2 2 2 2 2-- 2-- 0|
D|---- 0-- 0-- 0 0 0-- 0----------|-- 4---------- 4-- 4 4 4--------|
A|--------------------------------| 2-------- 2--------------------|
E| 3---------- 3------------------|------------------------------ 3|
http://classicalguitartablature.blogspot.com/
E|-- 3-- 2-- 0--------------------|---------------------- 0--------|
B|-- 3-- 3---- 0---- 3------------|-- 3-- 3 3-- 3 3 3-- 3---- 3----|
G|-- 0-- 0---- 0---- 0------ 0----|-- 2-- 2 2-- 2-- 2-- 2----------|
D|---------------------- 0--------|-- 4 4-- 4-- 4 4 4 4------------|
A|------------ 0---------------- 5|------------ 5------------------|
E|--------------------------------|------------------------------ 3|
http://classicalguitartablature.blogspot.com/
E|---------------------- 0--------|-------------------------- 2-- 2|
B|-- 3 3 3-- 3-- 3---- 3----------|-- 3-- 3-- 3 3-- 3 3-- 5-- 3-- 0|
G|-- 0 0-- 0 0 0 0---- 0----------|-- 2-- 2-- 2 2-- 2 2-- 2------ 0|
D|-- 0-- 0 0 0-- 0---- 0------ 0--|-- 4-- 4-- 4 4-- 4 4-- 4--------|
A|--------------------------------| 2-------- 2--------------------|
E|------------ 3------------------|--------------------------------|
http://classicalguitartablature.blogspot.com/
E|-- 3-- 2-- 2------ 0-------- 2--|-- 0----------------------------|
B|-- 0-- 0---- 0------ 0------ 3--|---- 3------------------ 3------|
G|-- 0---- 0-- 0-------------- 2--|-------- 2-------------- 2------|
D|------------------------ 0------| 4------------------ 4----------|
A|------------ 0------------------| 5---------- 5-------------- 5--|
E| 3------------------------------|--------------------------------|
http://classicalguitartablature.blogspot.com/
E|-------------- 2 3 2-- 0--------| 3 3-- 3---- 5---- 3-------- 0--|
B|-------- 3------------------ 3--| 0-- 0 0---- 0------ 0------ 1--|
G|-------- 2----------------------| 0-- 0 0---- 0------ 0------ 0--|
D|---- 4--------------------------|--------------------------------|
A| 5---------- 5------------------|--------------------------------|
E|--------------------------------| 3---------- 3---------------- 3|
http://classicalguitartablature.blogspot.com/
E|-- 0----------------------------|-- 3---- 3 3---------- 0-- 0----|
B|---- 3--------------------------|-- 3-- 3-- 3------ 3------ 1----|
G|---- 0---------------- 0--------|---- 0 0-- 0-------------- 0----|
D|-------- 2---------- 2----------|-------------------------- 2----|
A|--------------------------------|------------------------------ 3|
E|------------ 3-------------- 3 3|------------ 3------------------|
http://classicalguitartablature.blogspot.com/
E|---------- 0-- 0-- 2-- 3--------|-- 5-- 5-- 5------------------ 5|
B|-- 3------ 1---- 1-- 0---- 8----|-- 8-- 8-- 8---------- 5-- 8-- 1|
G|-------- 0---------------- 5----|---------------------- 5-- 5-- 2|
D|--------------------------------|------------------ 5------------|
A|------------ 3-------- 2--------|--------------------------------|
E|------------------------------ 5|------------ 5---------------- 1|
http://classicalguitartablature.blogspot.com/
E|-- 5-- 5-- 5 3 1----------------| 8-- 8-- 8-- 8-- 8 7---- 5-- 7--|
B|-- 1-- 1------------------------| 6-- 6-- 6-- 6-- 6-- 6-- 6-- 5--|
G|-- 2-- 2-------------- 2--------| 5-- 5-- 5-- 5-- 5-- 5-- 5-- 5--|
D|--------------------------------|--------------------------------|
A|--------------------------------| 5---------- 5------------------|
E|---------- 1---------------- 0--|------------------------------ 7|
http://classicalguitartablature.blogspot.com/
E|------ 7-------------- 7------ 7|-------------------------- 4-- 7|
B|-------- 5-------- 5-- 5------ 5|-- 5 5 5-- 5 5 5-- 5 5-- 7 5-- 5|
G|-------- 6-------- 6-- 6------ 4|---- 4 4-- 4 4 4-- 4 4-- 4------|
D|---- 7---------- 7--------------|-- 6 6 6-- 6 6 6-- 6 6-- 6------|
A|--------------------------------|--------------------------------|
E| 7---------- 7---------------- 0|------------ 0------------------|
http://classicalguitartablature.blogspot.com/
E|-------------------------- 4-- 7|-------------------------- 4-- 4|
B|-- 5 5-- 5-- 5 5 5 5 5 7--------| 5 5 5-- 5---- 5-- 5 5-- 7 5-- 2|
G| 6-- 6-- 6---- 6 6 6 6-------- 4|---- 4 4------ 4 4 4 4 4------ 2|
D|---- 7-- 7-- 7 7 7 7 7----------|-- 6 6 6------ 6-- 6 6 6--------|
A| 0---------- 0------------------| 4-------- 4------------------ 0|
E|--------------------------------|--------------------------------|
http://classicalguitartablature.blogspot.com/
E|---- 5-- 4-- 2------------------|--------------------------------|
B|---- 2-- 2-- 2---- 5------------|-- 5-- 5 5 5-- 5-- 5-- 7---- 5--|
G|---- 2-- 2-- 2------ 2------ 2--|-- 4-- 4 4 4 4 4-- 4-- 4--------|
D|-------------------- 2-- 2------|-- 6-- 6 6 6 6 6-- 6-- 6---- 6--|
A|------------ 2------------------|--------------------------------|
E|--------------------------------| 0---------- 0------------------|
http://classicalguitartablature.blogspot.com/
E|--------------------------------|---------------------------- 4--|
B|-- 5 5 5-- 5 5 5-- 5-- 7--------|---- 5 5-- 5-- 5 5 5-- 7-- 5----|
G|-- 6 6 6-- 6 6 6-- 6-- 6--------|-- 4 4 4-- 4-- 4-- 4---- 4------|
D|-- 7 7 7-- 7 7 7-- 7-- 7--------|-- 6-- 6-- 6-- 6 6 6-- 6--------|
A| 0-------- 0-------------- 0-- 4|------------ 4------------------|
E|--------------------------------|--------------------------------|
http://classicalguitartablature.blogspot.com/
E| 4-- 5-- 4-- 4------ 2----------|--------------------------------|
B| 2-- 2-- 2-- 2------ 2----------|-------------------------- 5-- 5|
G| 2-- 2-- 2-- 2------ 2------ 2--|------------------------------ 4|
D|------------------------ 2------|------------------------------ 6|
A| 0---------- 2------------------| 2------------------------------|
E|--------------------------------|--------------------------------|
http://classicalguitartablature.blogspot.com/
E|------ 4---- 5-------------- 2--| 4------------------------------|
B|---- 7------ 2------------ 5----| 5 7---- 5-- 4------------------|
G|------------ 2-------- 2--------| 4-- 4-- 4-- 4---------- 4------|
D|-------------------- 2----------|-------- 6-- 4---- 4------------|
A|------------ 4------------------|--------------------------------|
E| 0------------------------------| 0---------- 7-------------- 7--|
http://classicalguitartablature.blogspot.com/
E|------ 4---- 5------ 4-------- 2|-- 4----------------------------|
B| 5-- 7 5---- 2------ 2------ 5--|-- 5---- 5------ 2--------------|
G| 4-- 4------ 2------ 2----------|-- 4---- 2------ 2--------------|
D| 6---------------------- 2------|-------- 2------ 2--------------|
A|------------ 4------------------|-------- 4------ 0--------------|
E| 0------------------------------|-- 0----------------------------|
http://classicalguitartablature.blogspot.com/
E|------------------------------ 0|--------------------------------|
B|---------------------------- 0--|--------------------------------|
G|---------------------------- 1--|--------------------------------|
D|---------------------------- 4--|--------------------------------|
A|--------------------------------|--------------------------------|
E|-------------------------- 0----|--------------------------------|
http://classicalguitartablature.blogspot.com/