To celebrate the anniversary, I am giving you (finally...) : iPhone LickByNeck !!!!!!

Day By Day Theme Song (BASIC)

80's TV theme song fingerstyle chord melody guitar BASIC arrangement played in the key of E.

Day By Day Theme-BASIC ARRANGEMENT played in the key of E.
http://classicalguitartablature.blogspot.com/
E|--------------------------------|-------------------- 5-------- 4|
B|---- 5-------------- 7----------|---- 5------ 5---------------- 2|
G|---- 4---------------- 6--------|---- 4------ 4------------------|
D|---- 6---------------- 5--------|---- 4------ 3------------------|
A| 7---------- 7------------------|--------------------------------|
E|---------------- 5---------- 5--| 4---------- 3-------- 3------ 2|
http://classicalguitartablature.blogspot.com/
E|------ 2------------------------|---------------------------- 2 4|
B|------------ 2------------------|------------ 4------ 5----------|
G|-- 2-------- 2-------- 2--------|------ 2------------ 2----------|
D|-------------------- 2----------|---- 2-------------- 2----------|
A|------------------------------ 2|--------------------------------|
E|---------------------------- 2--|--------------------------------|
http://classicalguitartablature.blogspot.com/
http://classicalguitartablature.blogspot.com/
E|------ 4------ 4---- 2----------|------------------------------ 2|
B| 2-------- 2-------- 2------ 2--|------------ 2------ 4----------|
G|---- 2------ 2-------------- 2--|------ 2------------------------|
D|--------------------------------|---- 2--------------------------|
A|------------------------------ 2|--------------------------------|
E| 2------------------------------|------------------------------ 0|
http://classicalguitartablature.blogspot.com/
E|------ 0------------------------|-------------------- 2----------|
B|------ 0---- 0------------------|------ 2------ 4-- 2-------- 5--|
G|-- 1-------- 1-------- 1--------|------ 2------ 2----------------|
D|-------------------- 2------ 2--|-- 2----------------------------|
A|--------------------------------|--------------------------------|
E|--------------------------------| 2------------------------------|
http://classicalguitartablature.blogspot.com/
E|--------------------------------|--------------------------------|
B| 4---------- 4------------------|---------------------- 2------ 0|
G| 4------ 4------------ 4--------|------ 4------------ 4-------- 2|
D|---- 4-------------- 4----------|---- 3------ 3------------------|
A|------------------------------ 4|--------------------------------|
E| 4-------------------------- 4--|--------------------------------|
http://classicalguitartablature.blogspot.com/
E|--------------------------------|---------------------------- 4--|
B|---------------------------- 5--|------ 4------ 3---- 4------ 5--|
G|------ 2------ 1---- 2------ 5--|------ 5------ 5---- 5------ 4--|
D|-- 2------ 2--------------------|-- 4------ 4--------------------|
A|--------------------------------|------------------------------ 4|
E| 2---------------------- 2------| 4-------------------- 4--------|
http://classicalguitartablature.blogspot.com/
E|---- 4--------------------------|---------------------- 4------ 2|
B|---- 5-------------- 5----------|------------ 5---------------- 2|
G|---- 4-------- 4------ 4--------|------ 4------------ 4-------- 3|
D|------------ 6-------------- 6--|---- 6--------------------------|
A|--------------------------------| 4------------------------------|
E|--------------------------------|--------------------------------|
http://classicalguitartablature.blogspot.com/
E|------------------------------ 4|------ 2------ 1---- 2------ 5--|
B|------ 5------ 4---- 5----------|-------------------- 2------ 2--|
G|------ 3------ 3---- 3----------|---- 3---------------------- 2--|
D|---- 2---- 2---------------- 2--|------------------ 2------------|
A|--------------------------------|--------------------------------|
E| 2---------------------- 2------| 2---------------- 2------------|
http://classicalguitartablature.blogspot.com/
E|---- 5--------------------------|-------------- 7-------------- 4|
B|---- 2-------------- 2----------|------ 9------ 9--10---------- 2|
G|-------------- 2------ 2--------|------ 8------------ 8----------|
D|------------ 2------------------|---- 7---- 7--------------------|
A|--------------------------------|--------------------------------|
E| 2-------------------------- 2--| 7---------------------------- 2|
http://classicalguitartablature.blogspot.com/
E|------ 2------------------------|---------------------------- 2 4|
B|------------ 2------------------|------------ 4------ 5----------|
G|-- 2-------- 2-------- 2--------|------ 2------------ 2----------|
D|-------------------- 2----------|---- 2-------------- 2----------|
A|------------------------------ 2|--------------------------------|
E|---------------------------- 2--|--------------------------------|
http://classicalguitartablature.blogspot.com/
E|------ 4------ 4---- 2----------|------------------------------ 2|
B| 2-------- 2-------- 2------ 2--|------------ 2------ 4----------|
G|---- 2------ 2-------------- 2--|------ 2------------------------|
D|--------------------------------|---- 2--------------------------|
A|------------------------------ 2|--------------------------------|
E| 2------------------------------|--------------------------------|
http://classicalguitartablature.blogspot.com/
E|-------- 0----------------------|-------------------- 2-------- 7|
B|-------- 0-- 0-------- 0--------|---- 2------ 4-------------- 5--|
G|---- 1------ 1-------- 1--------|---- 2------ 2------------------|
D|-------------------- 2----------|---- 2------ 2------------------|
A|--------------------------------|--------------------------------|
E| 0-------------------------- 0--| 2------------------------------|
http://classicalguitartablature.blogspot.com/
E|------------ 7------------------|---------------------- 9--------|
B|---------------------- 7--------|------------10----------------12|
G| 7------ 7------------ 7--------|------10------------------------|
D|---- 6-------------- 6----------|---- 9------------ 9------------|
A|--------------------------------|--------------------------------|
E| 4-------------------------- 4 9|--------------------------------|
http://classicalguitartablature.blogspot.com/
E|--------------------------------|---------------------------- 4--|
B|--------10------------10--------|------ 4-------- 5-- 7------ 5--|
G| 9------ 9-------------- 9------|------ 6-------- 6-- 6------ 4--|
D|----11------11------11------11--|---- 7------ 7------------------|
A| 9------------------------------|--------------------------------|
E|--------------------------------| 7------------------------------|
http://classicalguitartablature.blogspot.com/
E|-------------- 5---- 7------ 7--|---- 4-------------- 5------ 4--|
B|---------- 5-- 4---- 4------ 6--|-------------- 6----------------|
G|------ 4------ 5---- 5------ 4--|------------ 4------------------|
D|---- 6--------------------------|--------------------------------|
A|--------------------------------| 4------------------------------|
E| 0-------------- 4--------------|--------------------------------|
http://classicalguitartablature.blogspot.com/
E|------ 2------------------------|-------------- 2-- 4------------|
B|-------- 2-- 2------ 4------ 5--|---------- 5-- 2---- 2----------|
G|---- 2------ 2------ 2------ 2--|------ 2------------------------|
D|---------------------------- 4--|---- 4--------------------------|
A|------------------------------ 2|--------------------------------|
E| 2-------------- 2--------------|------------------------------ 0|
http://classicalguitartablature.blogspot.com/
E|--------------------------------|------------ 9---------- 7------|
B|---- 5---------------- 7---- 5--|---- 7---------------- 7--------|
G|---- 4-------- 4------ 6---- 6--|---- 6------------------ 6------|
D|---- 6------ 6-------- 7---- 7--|---- 7--------------------------|
A|---------------------- 5--------|--------------------------------|
E|--------------------------------|------------------------ 0------|
http://classicalguitartablature.blogspot.com/

0 ความคิดเห็น:

แสดงความคิดเห็น