To celebrate the anniversary, I am giving you (finally...) : iPhone LickByNeck !!!!!!

Father And Son (BASIC)

Cat Stevens' tune fingerstyle chord melody guitar BASIC arrangement played in the key of G.

Father And Son-Cat Stevens-BASIC Arrangement played in the key of G.
http://classicalguitartablature.blogspot.com/
E|---------------- 3---- 3 5------|--------------------------------|
B| 0------ 0 1-- 1---- 1-------- 0|------ 0 1-------------- 0-- 1 3|
G| 0---- 0 0 0------------------ 0|------ 0 0----------------------|
D|---- 0 0 2-------------------- 0|---- 0 0 2----------------------|
A|--------------------------------|--------------------------------|
E| 3------------------------------| 3------------------------------|
http://classicalguitartablature.blogspot.com/
E|--------------------------------|-------------- 0----------------|
B|------ 0-- 1 3-------- 0 1---- 3|---- 3-- 3-- 3---------------- 0|
G|---- 0-------------- 2-------- 0|-------- 0-- 0---- 0-- 0-- 2----|
D|---- 0------------ 0-------- 2--|-------- 2-- 2------------------|
A|---------------- 2--------------| 3-------------- 0--------------|
E| 3------------------------------|--------------------------------|
http://classicalguitartablature.blogspot.com/
http://classicalguitartablature.blogspot.com/
E|--------------------------------|--------------------------------|
B|------------ 0-------- 0 1---- 0|------------------------ 0 1-- 3|
G|------ 0 0 2---------- 0--------|-- 2-- 2 0-- 2-------- 2------ 0|
D|---- 0------------ 2------------|---- 2 2------------ 4-------- 0|
A|--------------------------------| 0-------------- 5--------------|
E| 3-------------- 0--------------|--------------------------------|
http://classicalguitartablature.blogspot.com/
E|--------------------------------|-------------- 0----------------|
B|---- 1-- 0 1-- 3-------- 0 1-- 3|---- 3-- 3-- 3---------------- 0|
G|---- 0-- 0 0---- 2---- 2------ 0|---- 0-- 0 0------ 0---- 0 0 2--|
D|-------- 0 0-------- 0-------- 2|---- 2-- 2-- 2-------- 2--------|
A|---------------- 2--------------| 3-------------- 0--------------|
E| 3------------------------------|--------------------------------|
http://classicalguitartablature.blogspot.com/
E|--------------------------------|--------------------------------|
B|------------ 0-------- 1-- 0----|------------ 0-------- 0 1-- 3--|
G|------ 0-- 2-------- 0------ 0--|-- 2---- 2---------- 0----------|
D|-- 0-------------- 2------------| 2-- 2-------------- 4----------|
A|------------------------------ 0|---------------- 5--------------|
E| 3------------ 0----------------|--------------------------------|
http://classicalguitartablature.blogspot.com/
E|--------------------------------|-------------- 0----------------|
B|-------- 0 1-- 3-------- 0 1-- 3|---- 3-- 3-- 3---------------- 0|
G|------ 0-------- 2-- 2----------|---- 0-- 0 0------ 0------ 2----|
D|---- 0-------------- 0----------|---- 2-- 2-- 2-------- 2--------|
A|---------------- 2--------------| 3-------------- 0--------------|
E| 3------------------------------|--------------------------------|
http://classicalguitartablature.blogspot.com/
E|--------------------------------|--------------------------------|
B|------------ 0-------- 0 1---- 0|------------------------ 0 1-- 3|
G|------ 0 0 2---------- 0--------|-- 2-- 2 0-- 2-------- 2------ 0|
D|---- 0------------ 2------------|---- 2 2------------ 4-------- 0|
A|--------------------------------| 0-------------- 5--------------|
E| 3-------------- 0--------------|--------------------------------|
http://classicalguitartablature.blogspot.com/
E|--------------------------------|-------------- 0----------------|
B|---- 1-- 0 1-- 3-------- 0 1-- 3|---- 3-- 3-- 3---------------- 0|
G|---- 0-- 0 0---- 2---- 2------ 0|---- 0-- 0 0------ 0---- 0 0 2--|
D|-------- 0 0-------- 0-------- 2|---- 2-- 2-- 2-------- 2--------|
A|---------------- 2--------------| 3-------------- 0--------------|
E| 3------------------------------|--------------------------------|
http://classicalguitartablature.blogspot.com/
E|--------------------------------|-------------------------- 3----|
B|------------ 0-------- 0-- 1----| 0---------------------- 1---- 1|
G|------ 0-- 2-------- 0----------| 2-- 2-- 0------ 0--------------|
D|---- 0-------------- 2-------- 4|------------ 0------ 0----------|
A|------------------------------ 5|--------------------------------|
E| 3-------------- 0--------------|-------- 3----------------------|
http://classicalguitartablature.blogspot.com/
E| 3 5-------------------- 7 8--10|-------- 7 8--10-------- 7----10|
B|---------------- 8--------------|------ 8------------ 7----------|
G|---------------- 0--------------|---- 7-------------- 7----------|
D|-------------- 9---- 9----------|--------------------------------|
A|--------------10----------------|10------------------------------|
E|--------------------------------|---------------- 7--------------|
http://classicalguitartablature.blogspot.com/
E|--10--10--10--12-------------- 7|-------- 3 5-- 7------ 7 8-- 7--|
B| 8-- 8 8------ 8-- 8---- 810-- 3|------ 3-------------- 0---- 5--|
G|---- 9 9------ 9---- 9-------- 4|---- 4-------------- 0------ 5--|
D|--------------------------------|--------------------------------|
A|---------------- 0--------------|--------------------------------|
E| 8------------------------------| 3-------------- 0--------------|
http://classicalguitartablature.blogspot.com/
E|-- 5------ 5---------- 7-- 8--10|---- 8 7-- 8--10-------- 7 8--10|
B|------ 5------------ 5-------- 8|------ 8-- 8---------- 7------ 8|
G|---- 5-------- 5---- 5-------- 7|-- 7---- 7---------- 7-------- 9|
D|--------------------------------|--------------------------------|
A|---------------- 5--------------|10------------------------------|
E| 5------------------------------|---------------- 7--------------|
http://classicalguitartablature.blogspot.com/
E|----10--10--1012-------------- 7|------ 3-- 5-- 7------ 8-- 7----|
B|---- 8-- 8-- 8---- 8---- 810-- 3|------ 3------------ 0----------|
G|---- 9-- 9------------ 9------ 4|---- 4------------ 0------------|
D|--10----------------------------|--------------------------------|
A|---------------- 0--------------|--------------------------------|
E| 8------------------------------| 3-------------- 0--------------|
http://classicalguitartablature.blogspot.com/
E| 7 5-- 3---- 3-------------- 710|---------- 8-- 7-- 5-- 3--------|
B| 5 5-- 3---- 3 3-------- 3------|------ 7------ 5-- 5---------- 0|
G| 5 5---- 0-------- 0------------|------ 7------ 5-- 5---------- 0|
D|--------------------------------|-- 7------------------------ 0--|
A| 5------------------------------|--------------------------------|
E|-------- 3----------------------|10------------ 8-------- 3------|
http://classicalguitartablature.blogspot.com/
E|-------- 3---- 3 5--------------|---------- 3------ 3 5----------|
B| 0 1-- 1---- 1---------- 0-- 0 0|-- 1---- 1---- 1----------------|
G|-- 0-------------------- 0-- 0 0|-- 0----------------------------|
D| 0 2-------------------- 0-- 0 0|-- 2----------------------------|
A|--------------------------------|--------------------------------|
E|------------------------ 3------|--------------------------------|
http://classicalguitartablature.blogspot.com/
E|---------- 3--------------------|--------------------------------|
B|---------- 3--------------------|--------------------------------|
G|-------- 0----------------------|--------------------------------|
D|--------------------------------|--------------------------------|
A|--------------------------------|--------------------------------|
E|-------- 3----------------------|--------------------------------|
http://classicalguitartablature.blogspot.com/

0 ความคิดเห็น:

แสดงความคิดเห็น