To celebrate the anniversary, I am giving you (finally...) : iPhone LickByNeck !!!!!!

I Just Died In Your Arms (BASIC)

Cutting Crew's tune fingerstyle chord melody guitar BASIC arrangement played in the key of Bm.

I Just Died In Your Arms-Cutting Crew-BASIC ARRANGEMENT played in the key of Bm.
http://classicalguitartablature.blogspot.com/
E| 2------------------------ 3----|-- 3-- 3-- 2--------------------|
B| 3---------------- 3-- 3-- 0----|-- 0------ 0---------- 3-- 5----|
G| 2---- 2---------- 2-- 2-- 0----|-- 0-- 0------------------------|
D|---- 4---- 4------ 4-- 4--------|------------------ 0------------|
A| 2------------ 2----------------|------------------------------ 0|
E|--------------------------------| 0------------ 0----------------|
http://classicalguitartablature.blogspot.com/
E|------------------------------ 2|-------- 2---- 2----------------|
B|------------ 5------------ 5----| 2------ 2------ 2-- 5-- 3-- 3--|
G|------ 2-------------- 2--------| 3-------------- 3-- 3-- 3-- 3--|
D|-- 2---------------- 2----------|---- 4---- 4-------- 4-- 4-- 4--|
A|---------------- 0--------------|------------------------------ 2|
E|--------------------------------| 2-------------- 2--------------|
http://classicalguitartablature.blogspot.com/
http://classicalguitartablature.blogspot.com/
E|-------------------------- 3----|-- 3-- 3-- 2--------------------|
B|------------------ 3-- 3---- 0--|-- 0-- 0-- 0------------ 3-- 5--|
G|-- 4-------- 4---- 4-- 4---- 0--|-- 0-- 0------------------------|
D|-------- 4-------- 4-- 4--------|------------------ 0------------|
A|-------------- 2----------------|--------------------------------|
E|--------------------------------| 0------------ 0----------------|
http://classicalguitartablature.blogspot.com/
E|--------------------------------|------ 2------ 2-------------- 7|
B|------------ 5-------------- 5--|------ 2-- 6-- 2-- 6---- 7---- 7|
G|-------- 2-------------- 2------|-------------- 3-------------- 7|
D|---- 2-------------- 2----------|---- 4--------------------------|
A| 0-------------- 0--------------|------------------------------10|
E|--------------------------------| 2-------------- 2--------------|
http://classicalguitartablature.blogspot.com/
E|-- 7----------------------------|-------------------------- 5----|
B|-- 7-- 7-- 7--10--10---------- 7|-- 7---------------------- 3----|
G|-- 7-------------------- 9 9-- 7|------ 7-- 7-- 9------ 7-- 2----|
D|--------------------------------|------------------ 9------------|
A|------------------------------10|------------------------------ 2|
E|--------------------------------|--------------------------------|
http://classicalguitartablature.blogspot.com/
E|--------------------------------|--------------------------------|
B|---------- 3-------------- 3----|---------- 3-------------- 3----|
G|------ 2-------------- 2--------|------ 2-------------- 2------ 2|
D|-- 4-------------- 4------------|-- 4-------------- 4---------- 4|
A|-------------- 2-------------- 2|-------------- 2-------------- 2|
E|--------------------------------|--------------------------------|
http://classicalguitartablature.blogspot.com/
E|--------------------------------|--------------------------------|
B|--------------------------------|---------- 3-------------- 3----|
G|-- 4------ 4---------- 4------ 2|-- 4------------------ 4------ 2|
D|-- 4------ 4------ 4------ 4-- 4|-- 4-------------- 4---------- 0|
A|-------------- 2-------------- 2|-------------- 2----------------|
E|--------------------------------|------------------------------ 0|
http://classicalguitartablature.blogspot.com/
E|------------------------------ 0|-- 0----------------------------|
B|-- 0------ 0------ 0------ 0-- 0|-- 0-- 3-- 3-- 2------ 3------ 3|
G|---------- 0------ 0---------- 0|-------------- 0-------------- 2|
D|---------- 0------ 0------------|------------------ 0------ 0-- 2|
A|--------------------------------|--------------------------------|
E|-------------- 0-------------- 0|-------------- 0----------------|
http://classicalguitartablature.blogspot.com/
E|--------------------------------|--------------------------------|
B|---- 2------ 2------------------|--------------------------------|
G|---- 2------ 2------ 4------ 4--|-- 2-------- 2------------------|
D|---- 2------ 2------ 2------ 2--|------------------ 5------ 5----|
A| 0------------ 0-------------- 0|-------------- 0----------------|
E|--------------------------------|--------------------------------|
http://classicalguitartablature.blogspot.com/
E|--------------------------------|--------------------------------|
B|------------------ 2------------|---------- 2--------------------|
G|------------ 2-------------- 2--|------ 2---------------------- 2|
D|-- 4------------------ 4--------|-- 4---------------- 4------ 4 4|
A|--------------------------------|------------------------------ 2|
E| 2-------------- 2--------------| 2------------ 2----------------|
http://classicalguitartablature.blogspot.com/
E|--------------------------------|--------------------------------|
B|--------------------------------|---------- 3-------------- 3----|
G|-- 4------ 4---------- 4------ 2|-- 4------------------ 4------ 2|
D|-- 4------ 4------ 4------ 4-- 4|-- 4-------------- 4---------- 0|
A|-------------- 2-------------- 2|-------------- 2----------------|
E|--------------------------------|------------------------------ 0|
http://classicalguitartablature.blogspot.com/
E|------------------------------ 0|-- 0----------------------------|
B|-- 0------ 0------ 0------ 0-- 0|-- 0-- 3-- 3-- 2------ 3------ 3|
G|---------- 0------ 0---------- 0|-------------- 0-------------- 2|
D|---------- 0------ 0------------|------------------ 0------ 0-- 2|
A|--------------------------------|--------------------------------|
E|-------------- 0-------------- 0|-------------- 0----------------|
http://classicalguitartablature.blogspot.com/
E|--------------------------------|--------------------------------|
B|---- 2------ 2------------------|--------------------------------|
G|---- 2------ 2------ 4------ 4--|-- 2-------- 2------------------|
D|---- 2------ 2------ 2------ 2--|------------------ 5------ 5----|
A| 0------------ 0-------------- 0|-------------- 0----------------|
E|--------------------------------|--------------------------------|
http://classicalguitartablature.blogspot.com/
E|--------------------------------|-- 2---------- 2----------------|
B|------------ 2-------------- 2--|-- 2-- 5-- 3-- 2------ 5-- 3----|
G|------ 2-------------- 2--------|-- 2-- 5-- 2---- 2---- 5-- 2----|
D|---- 4-------------- 4----------|------ 4---- 4---- 4-- 4-- 4----|
A|--------------------------------|--------------------------------|
E| 2-------------- 2--------------| 2-------------- 2--------------|
http://classicalguitartablature.blogspot.com/
E| 2------------------------ 3----|-- 3-- 3-- 2--------------------|
B| 3---------------- 3-- 3-- 0----|-- 0------ 0---------- 3-- 5----|
G| 2---- 2---------- 2-- 2-- 0----|-- 0-- 0------------------------|
D|---- 4---- 4------ 4-- 4--------|------------------ 0------------|
A| 2------------ 2----------------|------------------------------ 0|
E|--------------------------------| 0------------ 0----------------|
http://classicalguitartablature.blogspot.com/
E|------------------------------ 2|-------- 2---- 2----------------|
B|------------ 5------------ 5----| 2------ 2------ 2-- 5-- 3-- 3--|
G|------ 2-------------- 2--------| 3-------------- 3-- 3-- 3-- 3--|
D|-- 2---------------- 2----------|---- 4---- 4-------- 4-- 4-- 4--|
A|---------------- 0--------------|------------------------------ 2|
E|--------------------------------| 2-------------- 2--------------|
http://classicalguitartablature.blogspot.com/
E|-------------------------- 3----|-- 3-- 3-- 2--------------------|
B|------------------ 3-- 3---- 0--|-- 0-- 0-- 0------------ 3-- 5--|
G|-- 4-------- 4---- 4-- 4---- 0--|-- 0-- 0------------------------|
D|-------- 4-------- 4-- 4--------|------------------ 0------------|
A|-------------- 2----------------|--------------------------------|
E|--------------------------------| 0------------ 0----------------|
http://classicalguitartablature.blogspot.com/
E|--------------------------------|------ 2------ 2-------- 2------|
B|------------ 5-------------- 5--|------ 2-- 6-- 2-- 6------------|
G|-------- 2-------------- 2------|-------------- 3----------------|
D|---- 2-------------- 2----------|---- 4--------------------------|
A| 0-------------- 0--------------|--------------------------------|
E|--------------------------------| 2-------------- 2--------------|
http://classicalguitartablature.blogspot.com/
E|--------------------------------|--------------------------------|
B|------------ 0---------- 0-- 0--| 0-- 0------ 3------------ 3----|
G|-------- 0-------------- 0-- 0--| 0-- 0---- 0---------- 0------ 2|
D|---- 0-------------- 0-- 0-- 0--| 0-- 0---- 0------ 0------------|
A|--------------------------------|--------------------------------|
E| 3------------------------------| 3------------------------------|
http://classicalguitartablature.blogspot.com/
E|---------------------------- 0--|--------------------------------|
B|-- 0-- 0------ 0------ 0-- 0----|-- 3------ 2------ 0------ 0----|
G|---------------------- 2---- 0--|---- 0---- 0------ 0-------- 0--|
D| 0------------------------------|------------------------ 0------|
A|--------------------------------|--------------------------------|
E| 0------------------------------| 0------------------------------|
http://classicalguitartablature.blogspot.com/
E|--------------------------------|------------------------------ 2|
B|-- 0---- 0---- 0-------- 0------| 0-- 0------ 3-------------- 3 2|
G| 2------ 2---- 2------------ 2--| 2-- 2------ 0-------- 0------ 3|
D| 0---------------- 0------------|---- 0-------------- 0----------|
A|--------------------------------|--------------------------------|
E| 3------------------------------|--------------------------------|
http://classicalguitartablature.blogspot.com/
E|------ 2------ 2-- 2-- 2---- 2--|---------- 2-- 2----------------|
B|------ 2------ 2-- 2-- 2---- 2--|------ 2------ 2---- 5---- 3----|
G|------ 3------ 3-- 3-- 3---- 3--|---- 3-------- 3---- 3---- 3----|
D|--------------------------------|-------------------- 2---- 2----|
A|--------------------------------|--------------------------------|
E| 2------------ 2----------------| 2-------------- 2--------------|
http://classicalguitartablature.blogspot.com/
E| 2------------------------ 3----|-- 3-- 3-- 2--------------------|
B| 3---------------- 3-- 3-- 0----|-- 0------ 0---------- 3-- 5----|
G| 2---- 2---------- 2-- 2-- 0----|-- 0-- 0------------------------|
D|---- 4---- 4------ 4-- 4--------|------------------ 0------------|
A| 2------------ 2----------------|------------------------------ 0|
E|--------------------------------| 0------------ 0----------------|
http://classicalguitartablature.blogspot.com/
E|------------------------------ 2|-------- 2---- 2----------------|
B|------------ 5------------ 5----| 2------ 2------ 2-- 5-- 3-- 3--|
G|------ 2-------------- 2--------| 3-------------- 3-- 3-- 3-- 3--|
D|-- 2---------------- 2----------|---- 4---- 4-------- 4-- 4-- 4--|
A|---------------- 0--------------|------------------------------ 2|
E|--------------------------------| 2-------------- 2--------------|
http://classicalguitartablature.blogspot.com/
E|-------------------------- 3----|-- 3-- 3-- 2--------------------|
B|------------------ 3-- 3---- 0--|-- 0-- 0-- 0------------ 3-- 5--|
G|-- 4-------- 4---- 4-- 4---- 0--|-- 0-- 0------------------------|
D|-------- 4-------- 4-- 4--------|------------------ 0------------|
A|-------------- 2----------------|--------------------------------|
E|--------------------------------| 0------------ 0----------------|
http://classicalguitartablature.blogspot.com/
E|--------------------------------|------ 2------ 2-------------- 7|
B|------------ 5-------------- 5--|------ 2-- 6-- 2-- 6---- 7---- 7|
G|-------- 2-------------- 2------|-------------- 3-------------- 7|
D|---- 2-------------- 2----------|---- 4--------------------------|
A| 0-------------- 0--------------|------------------------------10|
E|--------------------------------| 2-------------- 2--------------|
http://classicalguitartablature.blogspot.com/
E|-- 7----------------------------|-------------------------- 5----|
B|-- 7-- 7-- 7--10--10---------- 7|-- 7---------------------- 3----|
G|-- 7-------------------- 9 9-- 7|------ 7-- 7-- 9------ 7-- 2----|
D|--------------------------------|------------------ 9------------|
A|------------------------------10|--------------------------------|
E|--------------------------------|--------------------------------|
http://classicalguitartablature.blogspot.com/
E|--------------------------------|--------------------------------|
B|--------------------------------|--------------------------------|
G|--------------------------------|--------------------------------|
D| 4------------------------------|--------------------------------|
A| 2------------------------------|--------------------------------|
E|--------------------------------|--------------------------------|
http://classicalguitartablature.blogspot.com/

0 ความคิดเห็น:

แสดงความคิดเห็น