To celebrate the anniversary, I am giving you (finally...) : iPhone LickByNeck !!!!!!

Life In A Northern Town (BASIC)

The Dream Academy's tune fingerstyle chord melody guitar BASIC arrangement played in the key of E.

Life In A Northern Town-The Dream Academy-BASIC ARRANGEMENT played in the key of E.
http://classicalguitartablature.blogspot.com/
E| 4---------- 2---------- 2------|------------------------------ 4|
B|-------- 7 5------ 5---------- 5|------------ 4---------- 4------|
G|---- 4---- 2---- 2---------- 2--|------ 8-- 6-------- 6----------|
D|--------------------------------|---- 6---------- 4---------- 4--|
A|--------------------------------|--------------------------------|
E| 0------------------------------| 0------------------------------|
http://classicalguitartablature.blogspot.com/
E|------------ 2-------- 2--------|--------------------------------|
B|------ 7-- 5------ 5---------- 5|---------- 4---------- 4--------|
G|---- 4-------- 2---------- 2----|------ 8---------- 6------------|
D|--------------------------------|---- 6---------- 4-------- 4----|
A|--------------------------------|--------------------------------|
E| 0---------------------------- 0|--------------------------------|
http://classicalguitartablature.blogspot.com/
http://classicalguitartablature.blogspot.com/
E| 4-- 7-- 7-- 7------ 7------ 7--|------------------------------ 4|
B| 5-- 5-- 5-- 5------ 5------ 5--| 5-------- 5--------------------|
G| 4-- 4-- 4-- 4------ 4----------| 4---- 4-------------- 4------ 4|
D|--------------------------------|---- 6------------ 6------ 6----|
A|--------------------------------|--------------------------------|
E| 0------------------------------| 0------------------------------|
http://classicalguitartablature.blogspot.com/
E|-- 7-- 7---- 7---- 7-------- 7--|--------------------------------|
B|-- 5-- 5------------------------| 5---------- 5------------------|
G|-- 4-- 4---- 4---- 4------------|-------- 4---------- 4------ 4--|
D|--------------------------------|---- 6--------------------------|
A|--------------------------------|--------------------------------|
E| 0------------------------------| 0------------------------------|
http://classicalguitartablature.blogspot.com/
E| 4-- 4-- 4-- 2------ 2----------|--------------------------------|
B| 2-- 2-- 2-- 2------ 2------ 5--|------------ 5---------- 5------|
G| 2-- 2-- 2-- 2-------------- 2--|------ 2------------------------|
D|--------------------------------|---- 2-------------- 2----------|
A| 0------------------------------| 0------------------------------|
E|--------------------------------|--------------------------------|
http://classicalguitartablature.blogspot.com/
E|---- 4------ 2-------- 2--------|------------------------------ 4|
B|-------- 7-- 5-------------- 5 5|------------ 4-------------- 4 5|
G| 4---------- 2---- 2------------|------ 8-- 6---------- 6------ 4|
D|--------------------------------|-- 6-------------- 4------------|
A|--------------------------------|--------------------------------|
E| 0------------------------------| 0------------------------------|
http://classicalguitartablature.blogspot.com/
E|-- 7-- 7---- 7------ 7----------|------------------------------ 4|
B|-- 5-- 5---- 5------ 5---- 5----|---------- 5------------------ 5|
G|-- 4---- 4-- 4------------ 4----|------ 4---------- 4-------- 4--|
D|--------------------------------|-- 6----------------------------|
A|--------------------------------|--------------------------------|
E| 0------------------------------| 0------------------------------|
http://classicalguitartablature.blogspot.com/
E|-- 7-- 7---- 7---- 7------------|--------------------------------|
B|------ 5---- 5------ 5------ 5--|------------ 5------------------|
G|-- 4-- 4---- 4------ 4----------|-------- 4---------- 4---- 4----|
D|--------------------------------|---- 6--------------------------|
A|--------------------------------|--------------------------------|
E| 0------------------------------| 0------------------------------|
http://classicalguitartablature.blogspot.com/
E| 4-- 4-- 4-- 2------ 2----------|--------------------------------|
B| 2-- 2-- 2-- 2------ 2------ 5--|------------ 5---------- 5------|
G| 2-- 2-- 2-- 2-------------- 2--|------ 2------------------------|
D|--------------------------------|---- 2-------------- 2----------|
A| 0------------------------------| 0------------------------------|
E|--------------------------------|--------------------------------|
http://classicalguitartablature.blogspot.com/
E|---- 4------ 2-------- 2--------|------------------------------12|
B|-------- 7-- 5-------------- 5 5|------------ 4-------------- 4--|
G| 4---------- 2---- 2------------|------ 8-- 6---------- 6------ 9|
D|--------------------------------|-- 6-------------- 4------------|
A|--------------------------------|--------------------------------|
E| 0------------------------------| 0---------------------------- 0|
http://classicalguitartablature.blogspot.com/
E|--------------------------------|------------------------------12|
B|--12------12------12--------12--|--12--12-- 9--12------12------12|
G|---------- 9---------------- 9--|-- 9-- 9-- 9------------------ 9|
D|-- 9-- 9------ 9------ 9--------|------------------ 9------------|
A|--------------------------------|--------------------------------|
E|--------------------------------| 0---------------------------- 0|
http://classicalguitartablature.blogspot.com/
E|--12--------------------------12|--------11-- 9------ 7------ 9--|
B|--12------12------12------12----| 0------------------ 0----------|
G|-- 9------ 9------ 9------------|----13--11-- 9------ 8----------|
D|-- 9-- 9-------- 9---- 9--------|--------------------------------|
A|--------------------------------|--------------------------------|
E|--------------------------------| 0------------------------------|
http://classicalguitartablature.blogspot.com/
E|------------------------------ 5|-- 5---- 5-- 5------ 4---- 4----|
B|-------- 7------------ 7--------| 2 2-------- 2------ 2----------|
G|---- 9-------------- 9----------| 2 2---- 2-- 2------ 2----------|
D|--------------------------------|--------------------------------|
A| 0---------- 0-------------- 0--| 0---------- 0------------------|
E|--------------------------------|--------------------------------|
http://classicalguitartablature.blogspot.com/
E|--------------------------------|------------------------------12|
B| 5------------------------------|--------------------------------|
G|---- 4-- 4-- 4------ 4---- 4----|------ 4---------------- 4---- 9|
D|--------------------------------|-- 6---------------- 6----------|
A|--------------------------------|--------------------------------|
E| 0---------- 0---------------- 0|------------ 0-------------- 0 0|
http://classicalguitartablature.blogspot.com/
E|--------------------------------|------------------------------12|
B|--12------12------12--------12--|--12--12-- 9--12------12------12|
G|---------- 9---------------- 9--|-- 9-- 9-- 9------------------ 9|
D|-- 9-- 9------ 9------ 9--------|------------------ 9------------|
A|--------------------------------|--------------------------------|
E|--------------------------------| 0---------------------------- 0|
http://classicalguitartablature.blogspot.com/
E|--12--------------------------12|--------11-- 9------ 7------ 9--|
B|--12------12------12------12----| 0------------------ 0----------|
G|-- 9------ 9------ 9------------|----13--11-- 9------ 8----------|
D|-- 9-- 9-------- 9---- 9--------|--------------------------------|
A|--------------------------------|--------------------------------|
E|--------------------------------| 0------------------------------|
http://classicalguitartablature.blogspot.com/
E|------------------------------ 5|-- 5---- 5-- 5------ 4---- 4----|
B|-------- 7------------ 7--------| 2 2-------- 2------ 2----------|
G|---- 9-------------- 9----------| 2 2---- 2-- 2------ 2----------|
D|--------------------------------|--------------------------------|
A| 0---------- 0-------------- 0--| 0---------- 0------------------|
E|--------------------------------|--------------------------------|
http://classicalguitartablature.blogspot.com/
E|--------------------------------|--------------------------------|
B| 5------------------------------|--------------------------------|
G|---- 4-- 4-- 4------ 4---- 4----|------ 4---------------- 4------|
D|--------------------------------|-- 6---------------- 6----------|
A|--------------------------------|--------------------------------|
E| 0---------- 0---------------- 0|------------ 0-------------- 0--|
http://classicalguitartablature.blogspot.com/
E| 4---------- 2---------- 2------|------------------------------ 4|
B|-------- 7 5------ 5---------- 5|------------ 4---------- 4------|
G|---- 4---- 2---- 2---------- 2--|------ 8-- 6-------- 6----------|
D|--------------------------------|---- 6---------- 4---------- 4--|
A|--------------------------------|--------------------------------|
E| 0------------------------------| 0------------------------------|
http://classicalguitartablature.blogspot.com/
E|------------ 2-------- 2--------|--------------------------------|
B|------ 7-- 5------ 5---------- 5|---------- 4---------- 4--------|
G|---- 4-------- 2---------- 2----|------ 8---------- 6------------|
D|--------------------------------|---- 6---------- 4-------- 4----|
A|--------------------------------|--------------------------------|
E| 0---------------------------- 0|------------------------------ 0|
http://classicalguitartablature.blogspot.com/
E|------ 0------------------------|--------------------------------|
B|-- 2----------------------------|--------------------------------|
G| 4------------------------------|--------------------------------|
D| 4------------------------------|--------------------------------|
A|--------------------------------|--------------------------------|
E|--------------------------------|--------------------------------|
http://classicalguitartablature.blogspot.com/

0 ความคิดเห็น:

แสดงความคิดเห็น