To celebrate the anniversary, I am giving you (finally...) : iPhone LickByNeck !!!!!!

Set Fire To The Rain (BASIC)

Adele's song fingerstyle chord melody guitar BASIC arrangement played in the key of Dm.

Set Fire To The Rain-Adele-BASIC ARRANGEMENT played in the key of Dm.
http://classicalguitartablature.blogspot.com/
E| 5------------ 5---------- 5----|-------------- 5-- 6-- 5-- 3----|
B| 6------ 6------------ 6-- 6----|-------- 6---- 6-- 6-- 6--------|
G|---- 7------ 7---- 7---------- 5|---- 5---- 5--------------------|
D|--------------------------------|--------------------------------|
A| 5-------------------------- 8--|------------------------------ 3|
E|--------------------------------|--------------------------------|
http://classicalguitartablature.blogspot.com/
E|-------------- 3----------------|--------------------------------|
B|------ 5-------------- 5--11----|--------------11-------------- 6|
G|-- 5-------- 5---- 5------12----|------12--------------12------ 7|
D|------------------------------12|----12----12------12------1010--|
A|--------------------------10----|------------------------------ 5|
E|--------------------------------|--------------------------------|
http://classicalguitartablature.blogspot.com/
http://classicalguitartablature.blogspot.com/
E|--------------------------------|--------------------------------|
B|---------- 6---------- 6-- 8-- 6|---------- 6---------- 6-- 8----|
G|------ 7---------- 7---------- 5|------ 5---------- 5------------|
D|-- 7---------- 7----------------|-- 7---------- 7----------------|
A|--------------------------------| 8------------------------------|
E|--------------------------------|--------------------------------|
http://classicalguitartablature.blogspot.com/
E|--------------------------------|--------------------------------|
B| 5-------- 5-- 5-- 5---- 5------|---- 6---------- 6------------ 6|
G| 5---- 5-- 5-- 5-- 5-- 3--------|---------- 3------ 3------ 5 5 5|
D|---- 5---- 5-- 5-- 5------------|------ 3-------------- 3--------|
A| 3------------------------------|------------------------------ 5|
E|--------------------------------| 3------------------------------|
http://classicalguitartablature.blogspot.com/
E|------------------------------ 1|---------------------- 1-- 1-- 0|
B|------------ 6---- 6------ 8-- 1|-- 3 1 3---------- 3---------- 1|
G|------ 5-------------- 5 5---- 2|-- 2-- 2------ 2-------------- 0|
D|---- 7---------- 7--------------|-- 3-- 3-- 3--------------------|
A|--------------------------------|------------------------------ 3|
E|------------------------------ 1|--------------------------------|
http://classicalguitartablature.blogspot.com/
E|-- 0---- 0-------- 0------------|------------------------------ 5|
B|-- 1---- 1-------------- 1-- 1--|---- 3---------- 3---------- 1--|
G|-- 0---- 0---- 0------------ 3--|---- 3---- 3---------- 3--------|
D|------------ 2------------ 3----|-------- 3---------- 3----------|
A|--------------------------------|--------------------------------|
E|--------------------------------| 3------------------------------|
http://classicalguitartablature.blogspot.com/
E|------------------------------ 1|---------- 1---------- 1-- 0-- 0|
B| 6---------- 6-------- 6-- 8-- 1|------ 1------------ 1-------- 1|
G| 7---- 7---------- 7------------|---- 2-------- 2----------------|
D|---- 7---------- 7--------------|------------------------------ 2|
A| 5------------------------------|--------------------------------|
E|------------------------------ 1|--------------------------------|
http://classicalguitartablature.blogspot.com/
E|--------------------------------|------------------------------ 5|
B|------------ 1-- 1 3-- 3 1---- 3|------------ 3---------- 3---- 6|
G|------ 0------------------ 2-- 3|------ 3------------ 3------ 5 5|
D|-- 2----------------------------|-- 5---------- 5----------------|
A| 3------------------------------|--------------------------------|
E|------------------------------ 3|--------------------------------|
http://classicalguitartablature.blogspot.com/
E|--------------------------------|--------------------------------|
B|---------- 6------ 8-- 8-- 6----|------------ 6------ 6 6---- 5--|
G|------ 5---------- 5-- 5-- 5----|------ 5---------- 5-- 5---- 5--|
D|-- 7---------- 7----------------|---- 7-------- 7-- 7-- 7--------|
A| 5------------------------------|--------------------------------|
E|--------------------------------| 5------------------------------|
http://classicalguitartablature.blogspot.com/
E|--------------------------------|--------------------------------|
B|-------- 5-- 5 5-- 5-- 5-- 6----|---------- 6------------------ 3|
G|-------- 5-- 5 5-- 5-- 5-- 5----|------ 5---------- 7-- 7-- 7-- 2|
D|---- 5------ 5 5-- 5-- 5--------|-- 5----------------------------|
A|--------------------------------|------------------------------ 1|
E| 8------------------------------| 8------------------------------|
http://classicalguitartablature.blogspot.com/
E|---------- 0-------------- 0----|--------------------------------|
B|-------------- 3------ 3------ 6|-- 5-- 3---- 6 5-- 3---- 3-- 3 3|
G|------ 2------ 2-------------- 3|-- 3-- 3-- 3-- 3-- 3---- 3-- 3 5|
D|-- 3-------------- 3---------- 3|-- 3-- 3------------------------|
A|-------------- 1----------------|--------------------------------|
E|--------------------------------| 3-------------- 3--------------|
http://classicalguitartablature.blogspot.com/
E|--------------------------------|--------------------------------|
B|------------ 5 3------ 3-- 5-- 6|-- 5-- 3-- 6-- 5---- 3-- 3 3-- 3|
G|------ 5------ 5------ 5-- 5-- 5|-- 5-- 5------ 5-- 5-- 5-- 5-- 2|
D|-- 3-------------- 3---------- 3|-- 3---------------- 3-- 3 3----|
A| 5------------ 5-------------- 5|-------------- 5-------------- 1|
E|--------------------------------|--------------------------------|
http://classicalguitartablature.blogspot.com/
E|---------- 0-------------- 0-- 1|-- 0------ 1-- 0---- 0----------|
B|---------------- 3---- 3--------| 1 1-- 3-- 1---- 1-- 1----------|
G|------ 2-------- 2--------------| 0 0-- 0-- 0---- 0-- 0----------|
D|---- 3-------------- 3----------|--------------------------------|
A|---------------- 1--------------| 3 3-- 3---- 3-- 3-- 3 3-- 3-- 3|
E|--------------------------------|--------------------------------|
http://classicalguitartablature.blogspot.com/
E|---------- 1-- 1-------- 3---- 5|-------------------------- 5-- 5|
B|---------- 1-- 1-------------- 6|-------- 8------ 6---------- 8 6|
G|-------------- 0-------------- 7|-------- 7------ 7--------------|
D|--------------------------------|--------------------------------|
A|-- 3---- 3-- 3 3-------- 0---- 5|---- 5-- 5-- 5-- 5-- 5 5-- 5-- 5|
E|--------------------------------|--------------------------------|
http://classicalguitartablature.blogspot.com/
E|------------------ 8------------|------------------ 8-- 8--------|
B|---------------------- 6-- 8----|------ 6-- 6-------------- 8----|
G|--------------------------------|--------------------------------|
D|--------------------------------|--------------------------------|
A|-- 5-- 5-- 7---- 7 8-- 8--------|--------------------------------|
E|-------------------------- 8-- 8|-- 8-- 8-- 8-- 8-- 8-- 8-- 8-- 8|
http://classicalguitartablature.blogspot.com/
E|-- 5-------------- 5------------|--------------------------------|
B|-------------------------- 6----|-- 3-- 3---- 6---- 3-- 3-- 6----|
G|---------------------- 7-- 3----|-- 3-- 3---- 3---- 3-- 3-- 3----|
D|-------------------------- 3----|-- 3-- 3---- 3---- 3-- 3---- 3--|
A|---------- 5-- 5-- 7-- 7--------|--------------------------------|
E|-- 8-- 8------------------ 3-- 3|-- 3-- 3---- 3 3-- 3-- 3-- 3-- 3|
http://classicalguitartablature.blogspot.com/
E|--------------------------------|--------------------------------|
B|-- 3-- 3---- 6---- 3-- 3-- 6----|-------------------- 6 6--------|
G|-- 3-- 3---- 3---- 3-- 3------ 7|-------------------------- 7-- 5|
D|-- 3-- 3---- 3---- 3-- 3--------|--------------------------------|
A|-------------------------- 5-- 5|-- 5-- 5-- 7-- 7-- 8-- 8--------|
E|-- 3-- 3-- 5-- 5-- 6-- 6--------|-------------------------- 8-- 8|
http://classicalguitartablature.blogspot.com/
E|-------------- 5------ 5------ 5|-------------------------- 5-- 5|
B|-- 6-------------------------- 6|-------- 8------ 6---------- 8 6|
G| 7---------------------------- 7|-------- 7------ 7--------------|
D|--------------------------------|--------------------------------|
A|------------------------------ 5|---- 5-- 5-- 5-- 5-- 5 5-- 5-- 5|
E|-- 8---- 8 8-- 8-- 8-- 8-- 8----|--------------------------------|
http://classicalguitartablature.blogspot.com/
E|------------------ 8------------|------------------ 8-- 8--------|
B|---------------------- 6-- 8----|------ 6-- 6-------------- 8----|
G|--------------------------------|--------------------------------|
D|--------------------------------|--------------------------------|
A|-- 5-- 5-- 7---- 7 8-- 8--------|--------------------------------|
E|-------------------------- 8-- 8|-- 8-- 8-- 8-- 8-- 8-- 8-- 8-- 8|
http://classicalguitartablature.blogspot.com/
E|-- 5-------------- 5------------|--------------------------------|
B|-------------------------- 6----|-- 3-- 3---- 6---- 3-- 3-- 6----|
G|---------------------- 7-- 3----|-- 3-- 3---- 3---- 3-- 3-- 3----|
D|-------------------------- 3----|-- 3-- 3---- 3---- 3-- 3---- 3--|
A|---------- 5-- 5-- 7-- 7--------|--------------------------------|
E|-- 8-- 8------------------ 3-- 3|-- 3-- 3---- 3 3-- 3-- 3-- 3-- 3|
http://classicalguitartablature.blogspot.com/
E|--------------------------------|--------------------------------|
B|-- 3-- 3---- 6---- 3-- 3-- 6----|------------------ 6------------|
G|-- 3-- 3---- 3---- 3-- 3------ 7|-------------------------- 7 5 7|
D|-- 3-- 3---- 3---- 3-- 3--------|--------------------------------|
A|--------------------------------|------------------ 5-- 5--------|
E|-- 3-- 3-- 5-- 5-- 6-- 6-- 6-- 6|-- 6-- 6-- 8-- 8---------- 8-- 8|
http://classicalguitartablature.blogspot.com/
E|------------------ 5------------|--------------------------------|
B| 6-------------------- 8-- 8----|------ 6------ 6-- 6-- 8---- 8--|
G|--------------------------------|---------- 7-- 7-- 7-- 7---- 5--|
D|--------------------------------|-- 8---------------------- 7----|
A|--------------------------------|--------------------------------|
E|-- 8-- 8-- 8-- 8-- 8-- 8-- 8-- 6|-------------- 6----------------|
http://classicalguitartablature.blogspot.com/
E|-- 5----------------------------|--------------------------------|
B|------------------ 5-- 5-- 5-- 5|-------- 5-- 5-- 5------ 5-- 5--|
G|---------- 5------ 5-- 5-- 5-- 5|-------- 5-- 5-- 5------ 5-- 5--|
D|-------- 7----------------------|---- 7-------------- 7------ 5--|
A|--------------------------------|--------------------------------|
E| 5-------------- 5--------------| 5-------------- 5--------------|
http://classicalguitartablature.blogspot.com/
E|------------------ 5------------|--------------------------------|
B|---- 6------ 8-------- 8-- 8----|------ 6------ 6-- 6-- 8---- 8--|
G|---- 5------ 5------------------|---------- 7-- 7-- 7-- 7---- 5--|
D|-------- 5----------------------|-- 8---------------------- 7----|
A|--------------------------------|--------------------------------|
E| 8-------------- 8------------ 6|-------------- 6----------------|
http://classicalguitartablature.blogspot.com/
E|-- 5----------------------------|--------------------------------|
B|------------------ 5-- 5-- 5-- 5|-------- 5-- 5-- 5------ 5 5----|
G|---------- 5------ 5-- 5-- 5-- 5|-------- 5-- 5-- 5------ 5 5----|
D|-------- 7----------------------|---- 7-------------- 7---- 5----|
A|--------------------------------|--------------------------------|
E| 5-------------- 5--------------| 5-------------- 5--------------|
http://classicalguitartablature.blogspot.com/
E|------------------ 5-- 5------ 5|-------------------------- 5-- 5|
B|---- 6------ 8---- 8-- 8------ 6|-------- 8------ 6---------- 8 6|
G|---- 5---- 5------------------ 7|-------- 7------ 7--------------|
D|--------------------------------|--------------------------------|
A|------------------------------ 5|---- 5-- 5-- 5-- 5-- 5 5-- 5-- 5|
E| 8------------ 8----------------|--------------------------------|
http://classicalguitartablature.blogspot.com/
E|------------------ 8------------|------------------ 8-- 8--------|
B|---------------------- 6-- 8----|------ 6-- 6-------------- 8----|
G|--------------------------------|--------------------------------|
D|--------------------------------|--------------------------------|
A|-- 5-- 5-- 7---- 7 8-- 8--------|--------------------------------|
E|-------------------------- 8-- 8|-- 8-- 8-- 8-- 8-- 8-- 8-- 8-- 8|
http://classicalguitartablature.blogspot.com/
E|-- 5-------------- 5------------|--------------------------------|
B|-------------------------- 6----|-- 3-- 3---- 6---- 3-- 3-- 6----|
G|---------------------- 7-- 3----|-- 3-- 3---- 3---- 3-- 3-- 3----|
D|-------------------------- 3----|-- 3-- 3---- 3---- 3-- 3---- 3--|
A|---------- 5-- 5-- 7-- 7--------|--------------------------------|
E|-- 8-- 8------------------ 3-- 3|-- 3-- 3---- 3 3-- 3-- 3-- 3-- 3|
http://classicalguitartablature.blogspot.com/
E|--------------------------------|--------------------------------|
B|-- 3-- 3---- 6---- 3-- 3-- 6----|-------------------- 6 6--------|
G|-- 3-- 3---- 3---- 3-- 3------ 7|-------------------------- 7-- 5|
D|-- 3-- 3---- 3---- 3-- 3--------|--------------------------------|
A|-------------------------- 5-- 5|-- 5-- 5-- 7-- 7-- 8-- 8--------|
E|-- 3-- 3-- 5-- 5-- 6-- 6--------|-------------------------- 8-- 8|
http://classicalguitartablature.blogspot.com/
E|-------------- 5------ 5------ 5|-------------------------- 5-- 5|
B|-- 6-------------------------- 6|-------- 8------ 6---------- 8 6|
G| 7---------------------------- 7|-------- 7------ 7--------------|
D|--------------------------------|--------------------------------|
A|------------------------------ 5|---- 5-- 5-- 5-- 5-- 5 5-- 5-- 5|
E|-- 8---- 8 8-- 8-- 8-- 8-- 8----|--------------------------------|
http://classicalguitartablature.blogspot.com/
E|------------------ 8------------|------------------ 8-- 8--------|
B|---------------------- 6-- 8----|------ 6-- 6-------------- 8----|
G|--------------------------------|--------------------------------|
D|--------------------------------|--------------------------------|
A|-- 5-- 5-- 7---- 7 8-- 8--------|--------------------------------|
E|-------------------------- 8-- 8|-- 8-- 8-- 8-- 8-- 8-- 8-- 8-- 8|
http://classicalguitartablature.blogspot.com/
E|-- 5-------------- 5------------|--------------------------------|
B|-------------------------- 6----|-- 3-- 3---- 6---- 3-- 3-- 6----|
G|---------------------- 7-- 3----|-- 3-- 3---- 3---- 3-- 3-- 3----|
D|-------------------------- 3----|-- 3-- 3---- 3---- 3-- 3---- 3--|
A|---------- 5-- 5-- 7-- 7--------|--------------------------------|
E|-- 8-- 8------------------ 3-- 3|-- 3-- 3---- 3 3-- 3-- 3-- 3-- 3|
http://classicalguitartablature.blogspot.com/
E|--------------------------------|--------------------------------|
B|-- 3-- 3---- 6---- 3-- 3-- 6----|------------------ 6-- 6--------|
G|-- 3-- 3---- 3---- 3-- 3------ 7|-------------------------- 7-- 5|
D|-- 3-- 3---- 3---- 3-- 3--------|--------------------------------|
A|--------------------------------|------------------ 5-- 5--------|
E|-- 3-- 3-- 5-- 5-- 6-- 6-- 6-- 6|-- 6-- 6-- 8-- 8---------- 8-- 8|
http://classicalguitartablature.blogspot.com/
E|--------------------------------|--------------------------------|
B|-- 6---------------- 8-------- 6|--------------------------------|
G| 7------------------------------|--------------------------------|
D|--------------------------------|--------------------------------|
A|--------------------------------|--------------------------------|
E|-- 8-- 8-- 8-- 8-- 8-- 8-- 8----|--------------------------------|
http://classicalguitartablature.blogspot.com/

0 ความคิดเห็น:

แสดงความคิดเห็น