To celebrate the anniversary, I am giving you (finally...) : iPhone LickByNeck !!!!!!

The Harry Potter Theme Song (BASIC)

Harry Potter's tune fingerstyle chord melody guitar BASIC arrangement played in the key of Em.

The Harry Potter Theme Song-BASIC ARRANGEMENT played in the key of Em.
http://classicalguitartablature.blogspot.com/
E|------------------------|------------------------|
B| 1------------ 1------ 1|---------------------- 0|
G|---------- 0------------|-------------- 0--------|
D|------ 2----------------|------ 2----------------|
A|------------------------|------------------------|
E| 0-------------------- 0|---------------------- 0|
http://classicalguitartablature.blogspot.com/
E|------------------------|------------------------|
B|-------------- 0------ 0|---------------------- 1|
G|---------- 0------------|-------------- 0--------|
D|------ 2----------------|------ 2----------------|
A|------------------------|------------------------|
E|---------------------- 0|---------------------- 0|
http://classicalguitartablature.blogspot.com/
http://classicalguitartablature.blogspot.com/
E|------------------------|------------------------|
B|-------------- 1------ 1|---------------------- 0|
G|---------- 0------------|---------------- 0------|
D|------ 2----------------|------ 2----------------|
A|------------------------|------------------------|
E|---------------------- 0|------------------------|
http://classicalguitartablature.blogspot.com/
E|------------------------|---------------------- 0|
B|---------------- 0------|-------------- 0--------|
G|------------ 0----------|------------------------|
D|------ 2----------------|------ 2----------------|
A|------------------------|------------------------|
E| 0-------------------- 0|------------------------|
http://classicalguitartablature.blogspot.com/
E|-------------- 3-- 2-- 0|-------------- 7--------|
B|---------- 0---------- 0|---------------------- 5|
G|------ 0----------------|-------- 0--------------|
D|------------------------|------------------------|
A|------------------------|------------------------|
E| 0----------------------| 0----------------------|
http://classicalguitartablature.blogspot.com/
E| 5------------ 5------ 2|-------------- 2------ 0|
B|---------- 5---------- 1|---------------------- 0|
G|------ 5----------------|------ 0----------------|
D|------------------------|------------------------|
A|------------------------|---------------------- 2|
E| 0----------------------| 0----------------------|
http://classicalguitartablature.blogspot.com/
E|-------------- 3-- 2----|-------------- 1--------|
B|---------- 0------------| 4----------------------|
G|------ 0----------------| 2-------- 2------------|
D|------------------------|------ 4----------------|
A|------------------------|------------------------|
E|------------------------| 2----------------------|
http://classicalguitartablature.blogspot.com/
E|------------------------|---------------------- 0|
B| 0----------------------|-------------- 0--------|
G|---------- 2------------|-------------- 2--------|
D|------ 1------ 1--------|-------- 1--------------|
A| 2-------------------- 2|------------------------|
E|------------------------|------------------------|
http://classicalguitartablature.blogspot.com/
E|-------------- 3-- 2-- 0|-------------- 7------10|
B|---------- 0------------|---------- 0----------11|
G|------ 0----------------|------ 0--------------12|
D|------------------------|------------------------|
A|------------------------|----------------------10|
E| 0-------------------- 0|------------------------|
http://classicalguitartablature.blogspot.com/
E|-------------- 9------ 8|---------------------- 8|
B|---------------------- 9|-------------- 9------10|
G|----------12------------|----------10------------|
D|------12----------------|------10----------------|
A|---------------------- 8|---------------------- 7|
E|------------------------|------------------------|
http://classicalguitartablature.blogspot.com/
E|-------------- 7-- 6----|-------------- 3------ 0|
B|----------10------------|-------------- 2------ 0|
G|------ 9-------------- 3|---------- 3------------|
D|------------------------|------ 2----------------|
A|------------------------|------------------------|
E|---------------------- 0|---------------------- 0|
http://classicalguitartablature.blogspot.com/
E|------------------------|-------------- 3------ 7|
B|-------------- 0--------|---------------------- 8|
G|---------- 0------ 0----|---------------------- 9|
D|-------- 2--------------|-------- 2--------------|
A|------------------------|------------------------|
E|------------------------| 0-------------------- 0|
http://classicalguitartablature.blogspot.com/
E|------------------------| 7-------------------- 8|
B|---------------- 8------| 8------------ 8------ 8|
G|---------- 9------------|---------- 9------------|
D|------ 9----------------|-------- 9--------------|
A|------------------------|------------------------|
E|------------------------| 0----------------------|
http://classicalguitartablature.blogspot.com/
E|---------------- 7---- 6|------------------------|
B|---------------------- 8|-------------- 7------ 8|
G| 9-------- 9---------- 6|---------- 6---------- 9|
D|------10----------------|------ 8----------------|
A|------------------------|------------------------|
E| 0----------------------| 0----------------------|
http://classicalguitartablature.blogspot.com/
E|-------------- 7-- 6----|------------------------|
B|------------------------|-------------- 0--------|
G|---------- 9------------| 3-------- 3------------|
D|-------- 9--------------|------ 2----------------|
A|------------------------|------------------------|
E| 0----------------------| 0----------------------|
http://classicalguitartablature.blogspot.com/
E| 7----------------------|---------------------- 7|
B| 8------------ 8--------|-------------- 8------ 8|
G| 9-------- 9------ 9----|---------- 9---------- 9|
D|------ 9----------------|-------- 9--------------|
A|------------------------|------------------------|
E| 0----------------------| 0----------------------|
http://classicalguitartablature.blogspot.com/
E|---------------------- 7|----------------------10|
B|-------------- 8------ 8|-------------- 8------11|
G|---------- 9------------|---------- 9----------12|
D|------ 9----------------|-------- 9--------------|
A|------------------------|----------------------10|
E| 0-------------------- 0|------------------------|
http://classicalguitartablature.blogspot.com/
E|-------------- 9------ 8|---------------------- 8|
B|---------------------- 9|-------------- 9------10|
G|----------12------------|----------10------------|
D|------12----------------|------10----------------|
A|---------------------- 8|---------------------- 7|
E|------------------------|------------------------|
http://classicalguitartablature.blogspot.com/
E|-------------- 7-- 6----|-------------- 3------ 0|
B|----------10------------|---------------------- 0|
G|------ 9-------------- 3|---------- 3------------|
D|------------------------|-------- 2--------------|
A|------------------------|------------------------|
E|---------------------- 0|---------------------- 0|
http://classicalguitartablature.blogspot.com/
E|------------------------|-------------- 3--------|
B|-------------- 0--------|------------------------|
G|---------- 0------ 0----|---------------------- 9|
D|------ 2----------------|------ 2----------------|
A|------------------------|------------------------|
E|------------------------| 0-------------------- 0|
http://classicalguitartablature.blogspot.com/
E| 7----------------------| 7--------------------10|
B| 8------------ 8--------| 8------------ 8------11|
G|-------------- 9--------|------------------------|
D|-------- 9--------------|-------- 9--------------|
A|------------------------|----------------------10|
E|------------------------|------------------------|
http://classicalguitartablature.blogspot.com/
E|-------------- 9------ 8|---------------------- 8|
B|---------------------- 9|-------------- 9------10|
G|12--------------------10|------------------------|
D|------12----------------|------10----------------|
A|---------------------- 8|------------------------|
E|------------------------|------------------------|
http://classicalguitartablature.blogspot.com/
E|---------------- 7-- 6--|------------------------|
B|------------10----------|------------------------|
G|-------- 9--------------|-- 3-------------- 3----|
D|------------------------|------------ 2----------|
A| 7----------------------|-- 1--------------------|
E|------------------------|------------------------|
http://classicalguitartablature.blogspot.com/
E| 3------------------ 0--|------------------------|
B| 2------------------ 2--|------------------------|
G| 3---------------- 0----|------------------------|
D|------------------------|------------------------|
A|------------------------|------------------------|
E|---------------- 0------|------------------------|
http://classicalguitartablature.blogspot.com/

0 ความคิดเห็น:

แสดงความคิดเห็น