To celebrate the anniversary, I am giving you (finally...) : iPhone LickByNeck !!!!!!

As Pastirinhas (BASIC)

Noel Rosa's tune fingerstyle chord melody guitar BASIC arrangement played in the key of Em.

As Pastorinhas-Noel Rosa-BASIC ARRANGEMENT played in the key of Em.
http://classicalguitartablature.blogspot.com/
E|--------------------------------|------------ 7------------------|
B|---- 5-- 5-- 5-- 5---- 7---- 8--| 9--------------12----------12--|
G|---- 4-- 4-- 4-- 4--------------| 9------ 9------ 9------ 9------|
D|---- 6-- 6-- 6-- 6--------------|---- 9-------------- 9----------|
A|--------------------------------|--------------------------------|
E| 0------------------------------| 7-------------- 9------------ 2|
http://classicalguitartablature.blogspot.com/
E| 4---------- 4-- 2-------- 2----| 0------------------------------|
B| 2------------------------------|------------ 0------------------|
G| 4---- 4-------- 2---- 4--------|-------- 1---------- 1------ 1--|
D|--------------------------------|---- 2------------------ 2------|
A|-------------- 2----------------|--------------------------------|
E|--------------------------------| 0------------------------------|
http://classicalguitartablature.blogspot.com/
http://classicalguitartablature.blogspot.com/
E|---------------- 3--------------| 2---------- 0------------------|
B|------------------------ 4------| 0---------- 0------------------|
G|-------- 4----------------------|------ 0------------ 0---- 0----|
D|--------------------------------|-------------------- 0---- 0----|
A| 2------------------------------|-------- 2-------------- 2------|
E|--------------------------------| 0-------------- 0--------------|
http://classicalguitartablature.blogspot.com/
E|--------------------------------|--------------------------------|
B|-------- 0------ 5--------------| 3---------- 1------ 1----------|
G| 1-- 1------ 1-- 4------ 4------| 2------------------ 2---- 2----|
D| 0------------------ 3---- 3----|------ 2------------ 2---- 2----|
A|-------- 2----------------------| 0-------------- 0--------------|
E| 0-------------- 4------ 4------|-------- 0-------------- 0------|
http://classicalguitartablature.blogspot.com/
E|-------------------- 0----------| 2---------- 2------------------|
B|------------ 0-- 1---------- 4--| 0---------- 0------------------|
G|---- 2--------------------------| 2---------- 2------------------|
D| 2------------------------------|------ 1------------ 1---- 1----|
A| 0-------------- 0--------------| 2-------------- 2--------------|
E|-------- 0-------------- 0------|-------- 2-------------- 2------|
http://classicalguitartablature.blogspot.com/
E|-------------------- 7----------| 7---------- 7------------------|
B|---------------- 7---------- 7--| 5---------- 5------ 5----------|
G|---- 8---- 9---- 8---------- 8--|------ 7------------ 7---- 7----|
D|---- 7---------- 7--------------|--------------------------------|
A|-------- 9-------------- 9------|--------------------------------|
E| 7-------------- 7--------------| 0------ 7------ 0------ 7------|
http://classicalguitartablature.blogspot.com/
E| 7------ 7------ 5--------------| 3------------------------------|
B| 6------ 6------ 6------ 8------| 1---------- 1------------------|
G| 7------ 7------ 7------ 7------|--------------------------------|
D|------------------------ 6------|------ 2------------ 2---- 2----|
A|--------------------------------| 0-------------- 0--------------|
E| 0---------------------- 6------|-------- 0-------------- 0------|
http://classicalguitartablature.blogspot.com/
E|---------- 5--------------------| 2---------- 0------------------|
B|---- 7---- 7-- 8---- 7----------| 0---------- 0------ 0---- 0----|
G|---- 5---- 5-- 5---- 5------ 7--|---- 0------ 0------ 0---- 0----|
D|---- 5-------- 5---- 5----------|--------------------------------|
A| 5-------------- 5--------------|-------- 5-------------- 5------|
E|-------- 5-------------- 5------| 3-------------- 3--------------|
http://classicalguitartablature.blogspot.com/
E|---- 7---- 5-- 3----------------|---------- 2-- 2----------------|
B|---- 5---- 5-- 5---- 7---- 5----|-------------- 2----------------|
G|---- 4-------------- 4---- 4----| 3------------------------------|
D|--------------------------------|---- 2-------- 2---- 2---- 2----|
A| 3-------------- 3--------------|-------- 4-------------- 4------|
E|-------- 3-------------- 3------| 2-------------- 2--------------|
http://classicalguitartablature.blogspot.com/
E| 2------------ 2------------ 2--|--------------------------------|
B|---- 4---- 5-- 4---- 4------ 4--| 5------------------------------|
G|---- 2---- 2-- 2---- 2------ 2--| 4---------- 4------ 4---- 4----|
D|---- 4---- 4-------- 4----------|------ 6---- 6------ 6---- 6----|
A| 2-------------- 2--------------|--------------------------------|
E|-------- 2-------------- 2------| 0------ 7------ 0------ 7------|
http://classicalguitartablature.blogspot.com/
E|------------------------ 4------|---------------------------- 4--|
B|--------------------------------| 7---------- 5-------------- 5--|
G|---------------- 4--------------| 4---------- 4-------------- 4--|
D|-------- 6----------------------| 6---- 6---- 6------ 6----------|
A|--------------------------------|--------------------------------|
E| 0------------------------------| 0------ 7------ 0------ 7------|
http://classicalguitartablature.blogspot.com/
E|-------------- 2----------------|--------------------------------|
B| 7-- 5---- 4------ 5-------- 2--| 5---------- 4------------------|
G| 4-- 4---- 4------ 4-- 4--------| 2---------- 2------ 4---- 4----|
D| 6-- 6---- 6------ 2------------|---- 2------ 2------ 3---- 3----|
A|--------------------------------|---------------- 4--------------|
E| 4------ 4------ 3------ 3------| 2---- 2---------------- 4------|
http://classicalguitartablature.blogspot.com/
E|------------------------ 5------| 4---------- 2-------------- 5--|
B|--------------------------------| 2---------- 2------ 2----------|
G|-------- 2------ 6--------------|-------------------- 2------ 2--|
D| 2---- 2---- 2------ 7---- 7----|------ 2------------ 2----------|
A|-------- 4----------------------| 2-------------- 2--------------|
E| 2-------------- 5------ 5------|-------- 2-------------- 2------|
http://classicalguitartablature.blogspot.com/
E| 4---------------- 2------------|---------------- 4--------------|
B| 2---------------- 2---- 5-- 4--| 7-- 5-- 4-- 5-- 5---------- 5--|
G| 2---------------- 2------------|---- 4-- 4-- 4-------- 4---- 4--|
D|------ 2---- 2---------- 2------| 6-- 6-- 6-- 6-------------- 6--|
A| 2-------------- 2--------------|--------------------------------|
E|-------- 2-------------- 2------| 0------ 7------ 0------ 7------|
http://classicalguitartablature.blogspot.com/
E|------------------------ 4------|--------------------------------|
B|------------ 0------------------| 7------------ 5----------------|
G| 4------ 3-- 2------------------| 4---------- 4 4-------- 4------|
D| 6---------- 1------------------|---- 6------ 6 6---- 6-- 6------|
A|---------------- 2--------------|------------------------------ 2|
E| 0------------------------------| 0---- 7-------- 0---- 7--------|
http://classicalguitartablature.blogspot.com/
E|---------------- 7--------------|--------------------------------|
B|-- 5-- 4-- 5---- 7-- 9---- 5----| 7---------- 5------------------|
G|-- 2-- 2-- 2---- 7-- 7---- 7----| 6---------- 6------ 6---- 6----|
D|-- 4-- 4-- 4-------- 7---- 6----|------ 7------------ 7---- 7----|
A|------ 2------------------------|--------------------------------|
E|---------------- 7------ 6------| 5------ 0------ 5------ 0------|
http://classicalguitartablature.blogspot.com/
E|--------------------------------|------------ 7------------------|
B|---- 5---- 5---- 5-- 7------ 8--| 9---------- 9--12--------------|
G|---- 6---------- 6---------- 6--| 9-------------- 9--------------|
D|---- 5---- 5---- 5-- 5------ 5--|------ 9------------ 9---- 9----|
A|--------------------------------|------------------------11------|
E| 6------ 6------ 6------ 6------| 7------ 7------ 9--------------|
http://classicalguitartablature.blogspot.com/
E| 4-------- 4---- 2-------- 2----|--------------------------------|
B| 2-------- 2---- 0-------- 0----| 5------------------ 5----------|
G|---- 4-------------- 2----------| 6------------------ 5---- 5----|
D|--------------------------------|------ 6---- 6------ 4---- 4----|
A|---------------- 2--------------|--------------------------------|
E| 2------ 2-------------- 2------| 0------ 7------ 4------ 4------|
http://classicalguitartablature.blogspot.com/
E|--------------------------------|------------ 7------------------|
B|---- 5-- 5-- 5-- 5---- 7---- 8--| 9---------- 9--12--------------|
G|---- 6-- 6-- 6-- 6---- 6---- 6--| 9-------------- 9--------------|
D|---- 6-- 6-- 6-- 5---- 5---- 5--|------ 9------------ 9---- 9----|
A|--------------------------------|------------------------11------|
E| 5------ 5------ 6------ 6------| 7------ 7------ 9--------------|
http://classicalguitartablature.blogspot.com/
E| 4-------- 4---- 2-------- 2----| 0---------- 0------------------|
B| 2-------- 2---- 0-------- 0----| 2---- 2---- 2-- 1---- 1--------|
G|---- 4-------------- 2----------| 1---- 1---- 1-- 2---- 2---- 2--|
D|--------------------------------|---------------- 1---- 1---- 1--|
A|---------------- 2--------------|---------------- 2------ 2------|
E| 2------ 2-------------- 2------| 0------ 0----------------------|
http://classicalguitartablature.blogspot.com/
E|--------------------------------|--------------------------------|
B|-- 0----------------------------|--------------------------------|
G|-- 1----------------------------|--------------------------------|
D| 2------------------------------|--------------------------------|
A|--------------------------------|--------------------------------|
E| 0------------------------------|--------------------------------|
http://classicalguitartablature.blogspot.com/

0 ความคิดเห็น:

แสดงความคิดเห็น