To celebrate the anniversary, I am giving you (finally...) : iPhone LickByNeck !!!!!!

De Re Mi - the Sound Of Music (BASIC)

Julie Andrews' tune fingerstyle chord melody guitar BASIC arrangement played in the key of C.

Do Re Mi-The Sound Of Music-Julie Andrews-BASIC Arrangement played in the key of C.
http://classicalguitartablature.blogspot.com/
E|--------------------------------|--------------------------------|
B|--------------------------------|--------------------------------|
G|---- 0------ 0------ 0------ 0--|---- 0------ 0------ 0---- 0----|
D|---- 2---- 2-------- 2------ 2--|---- 2------ 2------ 2---- 2----|
A| 3------------ 3----------------| 3-------------- 3--------------|
E|------ 3-------------- 3--------|------ 3-------------- 3--------|
http://classicalguitartablature.blogspot.com/
E|---------------- 0--------------| 0-------------- 0--------------|
B| 1---------- 3 1------------ 1--|-------- 1----------------------|
G| 0------------------------------|--------------------------------|
D|---- 2-------------- 2----------|---- 2------ 2------ 2------ 2--|
A| 3-------------- 3--------------| 3-------------- 3--------------|
E|-------- 3-------------- 3------|-------- 3-------------- 3------|
http://classicalguitartablature.blogspot.com/
http://classicalguitartablature.blogspot.com/
E|--------------------------------|--------------------------------|
B| 3---------- 5-- 6-- 6-- 5-- 3--| 6------------------------------|
G| 4-------------- 4------ 4-- 4--| 4------------------------------|
D|---- 3--------------------------|---- 3------ 3------ 3------ 3--|
A|-------- 5-------------- 5------|-------- 5-------------- 5------|
E| 3-------------- 3--------------| 3-------------- 3--------------|
http://classicalguitartablature.blogspot.com/
E| 0---------- 1-- 3---------- 0--| 3------ 0------ 3--------------|
B| 1------------------------------| 1------ 1------ 1--------------|
G|--------------------------------| 0------ 0-- 0-- 0--------------|
D|---- 2-------------- 2----------|---- 2------ 2------ 2------ 2--|
A| 3-------------- 3--------------| 3-------------- 3--------------|
E|-------- 3-------------- 3------|-------- 3-------------- 3------|
http://classicalguitartablature.blogspot.com/
E|------------ 3-- 5-- 5 3--------| 5------------------------------|
B| 6-------------- 3-- 3---- 6----| 3------------------------------|
G| 4-------------- 4-- 4----------|--------------------------------|
D|---- 3--------------------------|---- 3------ 3------ 3------ 3--|
A|-------- 5-------------- 5------|-------- 5-------------- 5------|
E| 3-------------- 3--------------| 3-------------- 3--------------|
http://classicalguitartablature.blogspot.com/
E| 3------------------ 0-- 1-- 3--| 5------------------------------|
B| 1---------- 1-- 3-- 1-- 1-- 1--| 6------------------------------|
G|------------ 0-- 0-- 0-- 0-- 0--| 5------------------------------|
D|---- 2------ 2-- 2--------------|---- 7------ 7------ 7------ 7--|
A| 3-------------- 3--------------| 8-------------- 8--------------|
E|-------- 3-------------- 3------|-------- 8-------------- 8------|
http://classicalguitartablature.blogspot.com/
E| 5-------------------------- 5--| 7------------------------------|
B| 7-------------- 5-- 7-- 8------| 0------------------------------|
G|------------ 7-- 5-- 5-- 5------|---- 0------ 0------ 0------ 0--|
D|---- 7------ 7---------- 7------|--------------------------------|
A| 5-------------- 5--------------|-------- 5-------------- 5------|
E|-------- 5-------------- 5------| 3-------------- 3--------------|
http://classicalguitartablature.blogspot.com/
E| 7------------------ 4-- 5-- 7--| 8---------------------- 8-- 7--|
B| 5---------- 5-- 7-- 5-- 5-- 5--| 5------------------ 5----------|
G| 4---------- 4-- 4-- 4-- 4-- 5--| 5------------------ 5----------|
D|---- 6---------- 6--------------|---- 7------ 7------------------|
A|--------------------------------|-------- 7----------------------|
E| 4------ 4------ 4------ 4------| 5-------------- 3------ 3------|
http://classicalguitartablature.blogspot.com/
E| 5-------------- 7--------------| 8------------------------------|
B| 6------ 6------ 0------ 8------| 5------ 8----------------------|
G|-------- 5-------------- 7------|-------- 5------ 9------ 7------|
D|---- 7------ 7------ 0------ 5--|---- 5------ 5------10------ 5--|
A| 8------------------------------|-------- 7------10------ 7------|
E|-------- 5------ 3------ 7------| 8------------------------------|
http://classicalguitartablature.blogspot.com/
E| 3------------------------------| 5-------------- 1--------------|
B| 1-------------- 1--------------| 1-------------- 1--------------|
G|---------------- 0--------------|---- 2------ 2------ 2---- 2----|
D|---- 2------ 2------ 2------ 2--|--------------------------------|
A| 3-------------- 3--------------|-------- 3-------------- 3------|
E|-------- 3-------------- 3------| 1-------------- 1--------------|
http://classicalguitartablature.blogspot.com/
E| 0------------------------------|--------------------------------|
B| 1------------------------------| 3------------------------------|
G|---------------- 5--------------| 0-------------------------- 4--|
D|---- 2------ 2------ 4------ 4--|---- 0------ 0------ 2------ 3--|
A| 3------------------------------|------------------------ 5------|
E|-------- 3------ 5------ 4------| 3------ 1------ 0--------------|
http://classicalguitartablature.blogspot.com/
E|--------------------------------| 5-------------- 7--------------|
B| 8------------------------------| 6-------------- 6--------------|
G| 5-------------- 5--------------| 5-------------- 4--------------|
D|---- 5------ 5------ 5------ 5--|---- 7------ 7------ 6------ 6--|
A|--------------------------------|--------------------------------|
E| 8------ 8------ 6------ 6------| 5------ 5------ 4------ 4------|
http://classicalguitartablature.blogspot.com/
E| 8--------------10--------------| 8------------------------------|
B| 8-------------- 8--------------| 8------------------------------|
G| 9------------------10------10--| 9------------------------------|
D|----10------10------------------|----10------10------10------10--|
A|10------10------10------10------|--------10--------------10------|
E|--------------------------------| 8-------------- 8--------------|
http://classicalguitartablature.blogspot.com/
E| 3------------------------------| 5-------------- 1--------------|
B| 1-------------- 1--------------| 1-------------- 1--------------|
G|---------------- 0--------------|---- 2------ 2------ 2---- 2----|
D|---- 2------ 2------ 2------ 2--|--------------------------------|
A| 3-------------- 3--------------|-------- 3-------------- 3------|
E|-------- 3-------------- 3------| 1-------------- 1--------------|
http://classicalguitartablature.blogspot.com/
E| 0------------------------------|--------------------------------|
B| 1------------------------------| 3------------------------------|
G|---------------- 5--------------| 0-------------------------- 4--|
D|---- 2------ 2------ 4------ 4--|---- 0------ 0------ 2------ 3--|
A| 3------------------------------|------------------------ 5------|
E|-------- 3------ 5------ 4------| 3------ 1------ 0--------------|
http://classicalguitartablature.blogspot.com/
E|--------------------------------| 5-------------- 7--------------|
B| 8------------------------------| 6-------------- 6--------------|
G| 5-------------- 5--------------| 5-------------- 4--------------|
D|---- 5------ 5------ 5------ 5--|---- 7------ 7------ 6------ 6--|
A|--------------------------------|--------------------------------|
E| 8------ 8------ 6------ 6------| 5------ 5------ 4------ 4------|
http://classicalguitartablature.blogspot.com/
E| 8--------------10--------------| 8------------------------------|
B| 8-------------- 8--------------| 8------------------------------|
G| 9------------------10------10--| 9------------------------------|
D|----10------10------------------|----10------10------10------10--|
A|10------10------10------10------|--------10--------------10------|
E|--------------------------------| 8-------------- 8--------------|
http://classicalguitartablature.blogspot.com/
E|-------------------- 5-- 7-- 8--| 8-- 7-- 5----------------------|
B|-------- 5-- 6-- 8-- 5----------| 5---------- 8-- 6-- 5----------|
G| 5-- 7 5------------------------| 5---------------------- 7-- 5--|
D| 5------------------------------|--------------------------------|
A|--------------------------------|--------------------------------|
E| 8------------------------------| 8------------------------------|
http://classicalguitartablature.blogspot.com/
E|--------------------------------|--------------------------------|
B|--------------------------------|--------------------------------|
G| 5------------------------------|--------------------------------|
D| 5------------------------------|--------------------------------|
A|--------------------------------|--------------------------------|
E| 8------------------------------|--------------------------------|
http://classicalguitartablature.blogspot.com/

0 ความคิดเห็น:

แสดงความคิดเห็น