To celebrate the anniversary, I am giving you (finally...) : iPhone LickByNeck !!!!!!

Endless Love (BASIC)

Lionel Richie & Diana Ross' tune fingerstyle chord melody guitar BASIC arrangement played in the key of A.

Endless Love-Lionel Richie & Diana Ross-BASIC ARRANGEMENT played in the key of A.
http://classicalguitartablature.blogspot.com/
E|--------------------------------| 0------------------------------|
B| 2---------- 0---------- 0------|------------ 0---------- 0------|
G| 2---- 2------------ 2----------|-------- 2---------- 2----------|
D|---- 2---------- 2---------- 2--|---- 2---------- 2---------- 2--|
A| 0------------------------------| 0------------------------------|
E|--------------------------------|--------------------------------|
http://classicalguitartablature.blogspot.com/
E|--------------------------------|-------------------------- 0----|
B| 2---------- 2------------------|-------------- 2---- 3----------|
G| 2------ 2---------- 2------ 2--|-------- 2---- 2----------------|
D|---- 2---------- 2------ 2------|---- 2------ 2 2----------------|
A| 0------------------------------| 0------------------------------|
E|--------------------------------|--------------------------------|
http://classicalguitartablature.blogspot.com/
http://classicalguitartablature.blogspot.com/
E| 0------------------------------|--------------------------------|
B| 3-------- 3-- 2 3--------------|------------ 0-- 0-- 0-------- 0|
G| 2------ 2------------ 2--------|-------- 1-- 1-- 1-- 1----------|
D|---- 4-------------- 4------ 4--|---- 2------ 2-- 2-- 2----------|
A| 5------------------------------|--------------------------------|
E|------------------------------ 0|--------------------------------|
http://classicalguitartablature.blogspot.com/
E|--------------------------------|---------------------- 0--------|
B|---- 2------ 2------------------|--------------------------------|
G| 2-- 2------ 2---------- 2------|-------- 2---- 2----------------|
D|-------------------- 2------ 2--|---- 2------ 2------ 2------ 2--|
A| 0------------------------------| 0------------------------------|
E|--------------------------------|--------------------------------|
http://classicalguitartablature.blogspot.com/
E|--------------------------------|-------------------------- 0----|
B| 3---------- 2------------------|-------------- 2---- 3----------|
G| 2------ 2-------------- 2------|-------- 2---- 2----------------|
D|---- 2-------------- 2------ 2--|---- 2------ 2 2----------------|
A| 0------------------------------| 0------------------------------|
E|--------------------------------|--------------------------------|
http://classicalguitartablature.blogspot.com/
E| 0------------------------------|--------------------------------|
B| 3-------- 3-- 2 3--------------|------------ 0-- 0-- 0----------|
G| 2------ 2------------ 2--------|-------- 1-- 1-- 1-- 1----------|
D|---- 4-------------- 4------ 4--|---- 2------ 2-- 2-- 2----------|
A| 5------------------------------|--------------------------------|
E|------------------------------ 0|--------------------------------|
http://classicalguitartablature.blogspot.com/
E|-------- 0----------------------|-------------------------- 5-- 2|
B| 0---------- 2------------------|------------ 2---------------- 3|
G| 2------------------ 2------ 2--|-------- 2---------- 2-------- 2|
D|---- 2------------------ 2------|---- 2-------------- 2----------|
A| 0------------------------------| 0------------ 4----------------|
E|--------------------------------|--------------------------------|
http://classicalguitartablature.blogspot.com/
E|-------------- 2-- 0------------|---------------- 4-- 5---- 7----|
B|------------ 3 3-------- 3 2----|------------ 5-------- 5---- 5--|
G|-------- 2------ 2--------------| 4------ 4------ 4---- 4--------|
D|---- 4--------------------------|---- 6--------------------------|
A| 5------------------------------|--------------------------------|
E|--------------------------------| 0------------------------------|
http://classicalguitartablature.blogspot.com/
E| 0------------------------ 7----| 5------------------ 4------ 5--|
B| 2---------- 2------ 5----------| 2---------- 2------ 2----------|
G| 2------ 2---------- 4----------| 2------ 2---------- 2----------|
D|---- 2-------------- 6----------|---- 2--------------------------|
A| 0------------------------------|--------------------------------|
E|---------------- 4--------------| 2-------------- 0--------------|
http://classicalguitartablature.blogspot.com/
E| 2------------------------------|---------- 4-- 5 7-- 4----------|
B| 2---------- 2------------------|-------- 5 5---- 5-- 5------ 7--|
G| 2------ 2---------- 2------ 2--|-------- 4 4-- 4 4---- 4--------|
D|---- 4---------------- 4--------|---- 6-- 6----------------------|
A| 5------------------------------|--------------------------------|
E|--------------------------------| 0------------------------------|
http://classicalguitartablature.blogspot.com/
E| 0------------------------------|---------------------------- 5--|
B| 2---------- 2------------------|---------- 0---------------- 2--|
G|------ 2------------ 2------ 2--|------ 0------------ 2------ 2--|
D|---- 2---------------- 2--------|---- 0-------------- 5----------|
A| 0------------------------------|-------------- 0----------------|
E|--------------------------------| 0------------------------------|
http://classicalguitartablature.blogspot.com/
E|------------ 9 9---------- 7 5 7|--------------------------------|
B| 7---------------------------- 7|---------- 9-- 9----10------12--|
G| 6------ 6------------ 6--------|-------- 7---- 7---- 7---- 9----|
D|---- 7------------ 7------------|---- 7-------- 7----------------|
A| 5------------------------------|---------------- 7---- 9----11--|
E|--------------------------------| 0------------------------------|
http://classicalguitartablature.blogspot.com/
E| 7-------- 9---- 9--------------|------------------ 7-- 5-- 4----|
B| 5-------------- 9----------12--|10------------------ 5----------|
G| 6------ 6-------------- 9------| 9------ 9---------- 6----------|
D|---- 7-------------- 9----------|11--11------11------------------|
A| 0--------------11------------ 9|--------------------------------|
E|--------------------------------|---------------- 0--------------|
http://classicalguitartablature.blogspot.com/
E|---------------------------- 4 5| 4-------------------------- 5 5|
B|---- 7-------------- 7----------| 2---------- 2------------------|
G|---- 6-------- 6----------------|-------- 2---------- 2----------|
D|---- 7------ 7---------- 7------|---- 2---------------- 2--------|
A| 5------------------------------| 4------------------------------|
E|--------------------------------|--------------------------------|
http://classicalguitartablature.blogspot.com/
E|--------------------------------|--------------------------------|
B|------------ 3------------------|--------10----------10---- 7----|
G|-------- 2---------- 2----------|-------- 7---------- 7----------|
D|---- 4---------------------- 4--|-------- 7---------- 7---- 7----|
A| 2------------------------------|-------- 7-------------------- 0|
E|--------------------------------| 0------------------------------|
http://classicalguitartablature.blogspot.com/
E| 5---------- 5------------------|--------------------------------|
B| 5-------------- 5--------------|--------------------------------|
G| 4------ 4---------- 4-------- 6|---- 4--------------------------|
D|---- 4-------------------- 4----|--------------------------------|
A|--------------------------------|--------------------------------|
E|--------------------------------|--------------------------------|
http://classicalguitartablature.blogspot.com/

0 ความคิดเห็น:

แสดงความคิดเห็น