To celebrate the anniversary, I am giving you (finally...) : iPhone LickByNeck !!!!!!

Everybody Wants To Rule The World (BASIC)

Tears For Fears'tune fingerstyle chord melody guitar BASIC arrangement played in the key of D.

Everybody Wants To Rule The World-Tears For Fears-BASIC ARRANGEMENT played in the key of D.
http://classicalguitartablature.blogspot.com/
E|------------------10------------|--------------------------------|
B|--------------------10----------|--10----12----10--10----12--10--|
G|--------------------------11----|11--11----11----11----11--11----|
D|------------------------12--12--|--------------------------------|
A|--------------------------------|--------------------------------|
E|--------------------------------|--------------------------------|
http://classicalguitartablature.blogspot.com/
E|--------------------------------|--------------------------------|
B|--10----12--10----10----12--10--|--10----12----10--10----12--10--|
G|11--11----11----11--11----11----|11--11----11----11----11--11----|
D|--------------------------------|--------------------------------|
A|--------------------------------|--------------------------------|
E|--------------------------------|--------------------------------|
http://classicalguitartablature.blogspot.com/
http://classicalguitartablature.blogspot.com/
E|--------------------------------|--------------------------------|
B|--10----12--10----10----12--10--| 2------------------------------|
G|11--11----11----11--11----11----| 2---------- 0------------------|
D|--------------------------------| 2---------- 0------------------|
A|--------------------------------| 5-- 5-- 5-- 5-- 5-- 5-- 5-- 5--|
E|--------------------------------|--------------------------------|
http://classicalguitartablature.blogspot.com/
E|--------------------------------|--------------------------------|
B|------ 0---------------- 0------| 2---------- 0---------- 0------|
G|-------- 0-------------- 0------| 2---------- 0---------- 0------|
D|-------- 0-------------- 0------| 2---------- 0---------- 0------|
A| 5-- 5-- 5-- 5-- 5-- 5-- 5-- 5--| 5-- 5-- 5-- 5-- 5-- 5-- 5-- 5--|
E|--------------------------------|--------------------------------|
http://classicalguitartablature.blogspot.com/
E|--------------------------------|--------------------------------|
B|-------- 0-------------- 0------| 2---------- 0---------- 0------|
G|-------- 0-------------- 0------| 2---------- 0------------------|
D|-------- 0-------------- 0------| 2---------- 0------------------|
A| 5-- 5-- 5-- 5-- 5-- 5-- 5-- 5--| 5-- 5-- 5-- 5-- 5-- 5-- 5-- 5--|
E|--------------------------------|--------------------------------|
http://classicalguitartablature.blogspot.com/
E|---------------- 2--------------|--------------------------------|
B| 0------ 0-------------- 0------| 2---------- 0------------------|
G| 0------ 0------------------ 2--| 4---------- 0------------------|
D|--------------------------------| 2---------- 0------------------|
A| 5-- 5-- 5-- 5-- 5-- 5-- 5-- 5--| 5-- 5-- 5-- 5-- 5-- 5-- 5-- 5--|
E|--------------------------------|--------------------------------|
http://classicalguitartablature.blogspot.com/
E|---------------- 2--------------|--------------------------------|
B| 0------ 0-------------- 0------|------------ 0------------------|
G| 0------ 0-------------- 0-- 2--| 2---------- 0------------------|
D| 0------ 0----------------------| 2---------- 0------------------|
A| 5-- 5-- 5-- 5-- 5-- 5-- 5-- 5--| 5-- 5-- 5-- 5-- 5-- 5-- 5-- 5--|
E|--------------------------------|--------------------------------|
http://classicalguitartablature.blogspot.com/
E|---------------- 2------ 3------|--------------------------------|
B| 0------ 0------------------ 7--|-- 5-------- 0------ 0-------- 0|
G| 0------ 0------------------ 6--|---- 7------ 0------ 0----------|
D|------------------------------ 7|------------ 0------ 0------ 0--|
A| 5-- 5-- 5-- 5-- 5-- 5-- 5------| 5------ 5------ 5------ 5------|
E|--------------------------------|--------------------------------|
http://classicalguitartablature.blogspot.com/
E|--------------------------------|------ 2------------------------|
B|------ 0------ 7------ 0------ 0|------ 0-------- 0--------------|
G|-------- 0------ 0------------ 0|------ 0---------------- 2------|
D|---- 0------ 0------ 0-------- 7| 0-------------- 0--------------|
A| 5------ 5------ 5------ 5------|--------------------------------|
E|--------------------------------| 0-- 0-- 0-- 0-- 0-- 0-- 0-- 0--|
http://classicalguitartablature.blogspot.com/
E|-------- 2----------------------|-------- 2---- 0----------------|
B|-------- 2----------------------| 0------ 0------ 0---- 3--------|
G| 4------ 4------ 4------ 2------| 0------ 0------------ 0--------|
D| 2-------------- 2------ 2------| 0------------------------------|
A|--------------------------------|--------------------------------|
E| 2-- 2-- 2-- 2-- 2-- 2-- 2-- 2--| 3-- 3-- 3-- 3-- 3-- 3-- 3-- 3--|
http://classicalguitartablature.blogspot.com/
E|--------------------------------|-------- 2-------------------- 0|
B|--------------------------------| 0------ 0------ 0--------------|
G| 4---- 2-------------- 2--------| 0-------------- 2------ 2------|
D|-------------- 4----------------| 0-------------- 2--------------|
A|--------------------------------|--------------------------------|
E| 2-- 2-- 2-- 2-- 2-- 2 2---- 2--| 0-- 0-- 0-- 0-- 2-- 2-- 2-- 2--|
http://classicalguitartablature.blogspot.com/
E|--------------------------------|-------------- 2-------- 0------|
B| 0------------------------------|-------- 0-- 3 3----------------|
G| 0------ 2----------------------|-------- 0-- 0 0------------ 0--|
D|---------------- 4------ 2------|---- 0------ 0------ 0----------|
A|---------------- 0-- 0-- 0-- 0--|--------------------------------|
E| 3-- 3-- 3-- 3------------------| 3------------------------------|
http://classicalguitartablature.blogspot.com/
E|--------------------------------|-------------- 2-------- 0------|
B| 3------ 0-------------- 0------|-------- 0-- 3 3----------------|
G| 2------ 2------ 2------ 2------|-------- 0-- 0 0------------ 0--|
D| 4------ 4------ 2--------------|---- 0------ 0------ 0----------|
A|---- 5---- 5-------- 0---- 0----|--------------------------------|
E|--------------------------------| 3------------------------------|
http://classicalguitartablature.blogspot.com/
E|--------------------------------|-------------- 2-------- 0------|
B| 3------ 0-------------- 0------|-------- 0-- 3 3----------------|
G| 2------ 2------ 2------ 2------|-------- 0-- 0 0------------ 0--|
D| 4------ 4------ 2--------------|---- 0------ 0------ 0----------|
A|---- 5---- 5-------- 0---- 0----|--------------------------------|
E|--------------------------------| 3------------------------------|
http://classicalguitartablature.blogspot.com/
E|--------------------------------|-------- 2---- 0----------------|
B| 3------ 0-------------- 0------|-------- 0---- 0------ 3--------|
G| 2------ 2------ 2------ 2------|---------------- 0------ 0------|
D| 4------ 4------ 2--------------|------------------------ 0------|
A|---- 5---- 5-------- 0---- 0----|--------------------------------|
E|--------------------------------| 0-- 0-- 0-- 0-- 0-- 0-- 0-- 0--|
http://classicalguitartablature.blogspot.com/
E|--------------------------------|-------- 2---- 0----------------|
B|--------------------------------| 0------ 0------ 0---- 3--------|
G| 4------ 2-------------- 2------| 0------ 0------------ 0--------|
D|---------------- 4--------------| 0------------------------------|
A|--------------------------------|--------------------------------|
E| 2-- 2-- 2-- 2-- 2-- 2-- 2-- 2--| 3-- 3-- 3-- 3-- 3-- 3-- 3-- 3--|
http://classicalguitartablature.blogspot.com/
E|--------------------------------|-------- 2-------------------- 0|
B|--------------------------------| 0------ 0------ 0--------------|
G| 4---- 2-------------- 2--------| 0-------------- 2------ 2------|
D|-------------- 4----------------| 0-------------- 2--------------|
A|--------------------------------|--------------------------------|
E| 2-- 2-- 2-- 2-- 2-- 2 2---- 2--| 0-- 0-- 0-- 0-- 2-- 2-- 2-- 2--|
http://classicalguitartablature.blogspot.com/
E|---------------------------- 510|----10-- 9-- 7------ 7----------|
B| 0------------------------------| 7-- 7-- 7-- 7------ 710---- 7--|
G| 0------ 2----------------------| 7-- 7-- 7-- 7------ 7 7---- 7--|
D|---------------- 4------ 2------|---------------------- 7---- 7--|
A|---------------- 0-- 0-- 0-- 0--|--------------------------------|
E| 3-- 3-- 3-- 3------------------| 7------ 7------ 7------ 7------|
http://classicalguitartablature.blogspot.com/
E|------------------------------10|----10-- 9-- 7------ 7----------|
B|---- 8--10------------------10--| 7-- 7-- 7-- 7------ 710---- 7--|
G|---- 7-- 7-- 7------ 7----------| 7-- 7-- 7-- 7------ 7 7---- 7--|
D|---- 7-- 7-- 7------ 7------ 7--|---------------------- 7---- 7--|
A|--------------------------------|--------------------------------|
E| 8------ 8------ 8------ 8------| 7------ 7------ 7------ 7------|
http://classicalguitartablature.blogspot.com/
E|--------------------------------|10--10-- 9----------------------|
B|---- 8--10------------------10--|12--12--12--12------12--10-- 7--|
G|---- 7-- 7-- 7------ 7----------|11--11--11--11----------11-- 7--|
D|---- 7-- 7-- 7------ 7------ 7--|---------------------------- 7--|
A|--------------------------------|10------10------10------10------|
E| 8------ 8------ 8------ 8------|--------------------------------|
http://classicalguitartablature.blogspot.com/
E|--------------------------------|--------------------------------|
B|---- 810------------------------| 2------------------------------|
G|------ 7---- 7------ 7----------| 2---------- 0------------------|
D|---- 7-- 7-- 7-------- 9---- 7--| 2---------- 0------------------|
A| 0------ 0------ 0---- 0--------| 5-- 5-- 5-- 5-- 5-- 5-- 5-- 5--|
E|--------------------------------|--------------------------------|
http://classicalguitartablature.blogspot.com/
E|--------------------------------|--------------------------------|
B|------ 0---------------- 0------| 2---------- 0---------- 0------|
G|-------- 0-------------- 0------| 2---------- 0---------- 0------|
D|-------- 0-------------- 0------| 2---------- 0---------- 0------|
A| 5-- 5-- 5-- 5-- 5-- 5-- 5-- 5--| 5-- 5-- 5-- 5-- 5-- 5-- 5-- 5--|
E|--------------------------------|--------------------------------|
http://classicalguitartablature.blogspot.com/
E|--------------------------------|--------------------------------|
B|-------- 0-------------- 0------| 2---------- 0---------- 0------|
G|-------- 0-------------- 0------| 2---------- 0------------------|
D|-------- 0-------------- 0------| 2---------- 0------------------|
A| 5-- 5-- 5-- 5-- 5-- 5-- 5-- 5--| 5-- 5-- 5-- 5-- 5-- 5-- 5-- 5--|
E|--------------------------------|--------------------------------|
http://classicalguitartablature.blogspot.com/
E|---------------- 2--------------|--------------------------------|
B| 0------ 0-------------- 0------|-- 0----------------------------|
G| 0------ 0------------------ 2--|-- 2----------------------------|
D|--------------------------------| 4------------------------------|
A| 5-- 5-- 5-- 5-- 5-- 5-- 5-- 5--| 5------------------------------|
E|--------------------------------|--------------------------------|
http://classicalguitartablature.blogspot.com/

0 ความคิดเห็น:

แสดงความคิดเห็น