To celebrate the anniversary, I am giving you (finally...) : iPhone LickByNeck !!!!!!

From Russia With Love - James Bond (BASIC)

Matt Monro's James Bond tune fingerstyle chord melody guitar BASIC arrangement played in the key of Am.

From Russia With Love-James Bond-Matt Monro-BASIC Arrangement played in the key of Am.
http://classicalguitartablature.blogspot.com/
E|--------------------------------|------------------------ 3------|
B|------------------------ 0------|---------------- 3 1---- 0-- 5--|
G|------------------------ 0------|------------ 0---- 2---- 0-- 5--|
D|------------------------ 0------|-------- 0---------- 2------ 3--|
A|--------------------------------|---------------------------- 5--|
E|------------------------ 3------|-------------------- 1-- 0------|
http://classicalguitartablature.blogspot.com/
E| 7----10------------------------|--------------------------------|
B| 5----10--10 6------------------|--------------------------------|
G| 4---- 7-------- 7---- 5------ 4|--------------------------------|
D|---------------------- 3------ 2|------------------ 2------------|
A| 3------------------------------|--------------------------------|
E|------ 6-------------- 4--------|--------------------------------|
http://classicalguitartablature.blogspot.com/
http://classicalguitartablature.blogspot.com/
E|--------------------------------| 1------------------------------|
B|---- 1--------------------------| 1------ 1----------------------|
G| 2------ 2------------------ 2--|---- 2--------------------------|
D| 2---- 2------------ 2----------|---- 3------------ 3-------- 3--|
A| 0---------- 0------------------| 0---------- 0------------------|
E|---------------- 0---- 0--------|-------------- 0-------- 0------|
http://classicalguitartablature.blogspot.com/
E|---------- 0-------------- 0----|--------------------------------|
B|-------------- 4-------------- 0|--------------------------------|
G|------ 2------------------------|------ 1------------ 4------ 4--|
D|---- 4-- 4-------- 4------------|-- 0---- 0---------- 2------ 2--|
A| 2------------------------------|--------------------------------|
E|---------------- 2---- 2--------| 0---------- 0-- 4------ 4------|
http://classicalguitartablature.blogspot.com/
E|--------------------------------| 3-------------------------- 2--|
B|-------- 1----------------------| 1------ 1----------------------|
G|---- 2-------- 2------------ 2--|------ 2------------------------|
D| 2---------- 2------ 2----------|---- 3-------------- 3----------|
A| 0------------------------------| 0---------- 0 0-------- 0------|
E|---------------- 0------ 0------|--------------------------------|
http://classicalguitartablature.blogspot.com/
E| 1-------------------------- 0--| 4------------------------------|
B|-------- 3----------------------| 3---- 3-------------------- 5--|
G|------ 2------------------------|---- 4-- 4-------- 4-------- 4--|
D|---- 3-------------- 3----------|---------------------------- 2--|
A| 2---------- 2------------------|--------------------------------|
E|---------------- 1------ 1------| 0---------- 0-- 2---- 4--------|
http://classicalguitartablature.blogspot.com/
E|-------------- 5----------------|--------------------------------|
B|-------- 2-- 5------ 5------ 2--|-------- 2----------------------|
G|---- 2--------------------------| 2---- 2------------------------|
D|-- 2----------------------------|---- 2-------------- 2------ 2--|
A| 0---------- 0------------------| 0---------- 0-- 4------ 4------|
E|---------------- 0------ 0------|--------------------------------|
http://classicalguitartablature.blogspot.com/
E|--------------------------------|--------------------------------|
B| 8-- 8--------------------------| 6-- 3--------------------------|
G| 5-- 5------ 5------------------| 5-- 5-------- 5---------- 4----|
D| 7-- 7---- 7------ 7-------- 7--|---- 3------ 3------ 3----------|
A| 5------------------------------| 5------------------------------|
E|---------------- 5------ 5------|---------------- 5------ 5------|
http://classicalguitartablature.blogspot.com/
E| 1---------------------------- 0|--------------------------------|
B| 1------ 1-------------------- 3|------ 3------------------------|
G|------ 2------------------------| 1------ 1---- 1----------------|
D|---- 3------------ 3-------- 3--|---- 2------ 2------ 2------ 2--|
A| 0---------- 0------------------|---------------- 2------ 2------|
E|---------------- 0------ 0------| 0------------------------------|
http://classicalguitartablature.blogspot.com/
E|--------------------------------|--------------------------------|
B|---------- 1--------------------| 1------------------------------|
G|---- 2-------- 2-------------- 2|---------------- 1------ 2------|
D| 2------------------ 2------ 2 2|--------------------------------|
A| 0------------------------------| 0------------------------------|
E|---------------- 0------ 0------|--------------------------------|
http://classicalguitartablature.blogspot.com/
E| 3------------------------------|---- 3--------------------------|
B| 6-- 6--------------------------|---- 6-- 6------------------ 3--|
G| 5-- 5------ 5------------------|---- 4-- 4---- 4----------------|
D|---------- 3-------- 3------ 3--|------------ 3------ 3----------|
A| 5------------------------------|---------------- 5------ 5------|
E|---------------- 5------ 5------| 3------------------------------|
http://classicalguitartablature.blogspot.com/
E|--------------------------------|--------------------------------|
B|---- 6-------------- 5 3---- 6--| 5------------------------------|
G|---- 4---- 4-------- 4 4--------|------ 4------------------------|
D|-------- 5-- 5------ 5 5--------|---- 5-- 5---------- 5------ 5--|
A| 3------------------------------| 3---------- 3-- 4---- 4--------|
E|---------------- 3------ 3------|--------------------------------|
http://classicalguitartablature.blogspot.com/
E|--------------------------------|--------------------------------|
B|-------- 3----------------------|---------------- 5-- 3------ 3--|
G|---- 5-------- 5----------------|------ 4-------- 4---- 5-- 4----|
D|---- 3------ 3------ 3------ 3--|-- 3---- 3------ 3--------------|
A| 5------------------------------|---------------- 5------ 5------|
E|---------------- 5------ 5------| 3---------- 3------------------|
http://classicalguitartablature.blogspot.com/
E| 0------------------------------|--------------------------------|
B| 1------------------------------|------ 1------------------------|
G|------ 0------------------------|------ 0-------- 2-- 1------ 2--|
D|---- 2-- 2---------- 2------ 2--|---- 2---------- 2-- 2------ 2--|
A| 3---------- 3------------------| 3---------- 3-- 0------ 0------|
E|---------------- 0------ 3------|--------------------------------|
http://classicalguitartablature.blogspot.com/
E| 3------------------------------|---- 3--------------------------|
B| 6-- 6--------------------------|---- 6-- 6------------------ 3--|
G| 5-- 5------ 5------------------|---- 4-- 4---- 4----------------|
D|---------- 3-------- 3------ 3--|------------ 3------ 3----------|
A| 5------------------------------|---------------- 5------ 5------|
E|---------------- 5------ 5------| 3------------------------------|
http://classicalguitartablature.blogspot.com/
E|--------------------------------|--------------------------------|
B|---- 6-- 5------------------ 3--| 1------------------ 0----------|
G|---- 4-- 4---- 4----------------| 0---- 0------------ 2------ 2--|
D|---- 5------ 5------ 5----------|---- 2-- 2------------------ 2--|
A| 3------------------------------| 0------------------------------|
E|---------------- 3------ 3------|------------ 3-- 2------ 2------|
http://classicalguitartablature.blogspot.com/
E|--------------------------------|---------------------------- 1--|
B| 0-- 0--------------------------|-------- 0------ 0-- 3----------|
G| 2---- 2------------------------|--------------------------------|
D|---- 1-- 1----------------------|--------------------------------|
A|---------------- 5-- 2-- 0------| 5------------------------------|
E| 1---------- 0-------------- 1--|--------------------------------|
http://classicalguitartablature.blogspot.com/
E| 0------------ 7 4--------------|--------------------------------|
B| 0---------------- 5------------|--------------------------------|
G| 1-- 2 1---- 2------ 4----------|--------------------------------|
D|---------------------- 6 2------|---------------- 2-- 0------ 2--|
A|-------------------------- 2----|------------ 2---------- 3-- 2--|
E| 0-------------------------- 4 0|---- 0-- 0----------------------|
http://classicalguitartablature.blogspot.com/
E|--------------------------------| 1------------------------------|
B|---- 1--------------------------| 1------ 1----------------------|
G| 2------ 2------------------ 2--|---- 2--------------------------|
D| 2---- 2------------ 2----------|---- 3------------ 3-------- 3--|
A| 0---------- 0------------------| 0---------- 0------------------|
E|---------------- 0---- 0--------|-------------- 0-------- 0------|
http://classicalguitartablature.blogspot.com/
E|---------- 0-------------- 0----|--------------------------------|
B|-------------- 4-------------- 0|--------------------------------|
G|------ 2------------------------|------ 1------------ 4------ 4--|
D|---- 4-- 4-------- 4------------|-- 0---- 0---------- 2------ 2--|
A| 2------------------------------|--------------------------------|
E|---------------- 2---- 2--------| 0---------- 0-- 4------ 4------|
http://classicalguitartablature.blogspot.com/
E|--------------------------------| 3-------------------------- 2--|
B|-------- 1----------------------| 1------ 1----------------------|
G|---- 2-------- 2------------ 2--|------ 2------------------------|
D| 2---------- 2------ 2----------|---- 3-------------- 3----------|
A| 0------------------------------| 0---------- 0 0-------- 0------|
E|---------------- 0------ 0------|--------------------------------|
http://classicalguitartablature.blogspot.com/
E| 1-------------------------- 0--| 4------------------------------|
B|-------- 3----------------------| 3---- 3-------------------- 5--|
G|------ 2------------------------|---- 4-- 4-------- 4-------- 4--|
D|---- 3-------------- 3----------|---------------------------- 2--|
A| 2---------- 2------------------|--------------------------------|
E|---------------- 1------ 1------| 0---------- 0-- 2---- 4--------|
http://classicalguitartablature.blogspot.com/
E|-------------- 5----------------|--------------------------------|
B|-------- 2-- 5------ 5------ 2--|-------- 2----------------------|
G|---- 2--------------------------| 2---- 2------------------------|
D|-- 2----------------------------|---- 2-------------- 2------ 2--|
A| 0---------- 0------------------| 0---------- 0-- 4------ 4------|
E|---------------- 0------ 0------|--------------------------------|
http://classicalguitartablature.blogspot.com/
E|--------------------------------|--------------------------------|
B| 8-- 8--------------------------|------------ 6---- 3------------|
G| 5-- 5-------- 5----------------|------ 7---------- 4------ 4----|
D| 7-- 7------ 7------ 7------ 7--|---- 7-- 7---------- 3---- 3----|
A| 5------------------------------|---------------- 5------ 5------|
E|---------------- 8---- 8--------| 7------------------------------|
http://classicalguitartablature.blogspot.com/
E| 1------------------------------|------ 0-------- 4-- 1------ 0--|
B| 1------ 1----------------------| 0------------------------------|
G| 2---- 2------------------------| 1------------------------------|
D|---- 3-------------- 3---- 3-- 0|--------------------------------|
A| 0---------- 0------------------|------------------------------ 0|
E|---------------- 0------ 0---- 0|--------------------------------|
http://classicalguitartablature.blogspot.com/
E| 5------------------------------|--------------------------------|
B| 5------------------------------| 6------ 6------ 6------ 5-- 6--|
G| 5---------- 5-- 7-- 5----------| 7------ 5------ 7-- 7-------- 7|
D|---- 7-- 9 7------------ 9-- 7--| 7------ 7---- 7------ 7--------|
A|--------------------------------| 5------------------------------|
E|--------------------------------|-------- 8---- 7-------------- 6|
http://classicalguitartablature.blogspot.com/
E| 5-- 5------ 5-- 6-------- 8--10|------------12------------------|
B| 6------ 8------ 6-------- 6-- 6|------------10------------------|
G|---------------- 7-------- 7-- 7|---------- 9--------------------|
D|--------------------------------|--------------------------------|
A|--------------------------------|---------- 0--------------------|
E|---------------- 6-------- 6----| 6------------------------------|
http://classicalguitartablature.blogspot.com/
E|--------------------------------|--------------------------------|
B|--------------------------------|--------------------------------|
G|--------------------------------|--------------------------------|
D|--------------------------------|--------------------------------|
A|--------------------------------|--------------------------------|
E|--------------------------------|--------------------------------|
http://classicalguitartablature.blogspot.com/

0 ความคิดเห็น:

แสดงความคิดเห็น