To celebrate the anniversary, I am giving you (finally...) : iPhone LickByNeck !!!!!!

Goodbye (BASIC)

Air Supply's tune fingerstyle chord melody guitar BASIC arrangement played in the key of E.

Goodbye-Air Supply-BASIC Arrangement played in the key of E.
http://classicalguitartablature.blogspot.com/
E|------------------ 4 4---- 4 4--|---------- 0---- 9-- 9-- 9------|
B|------------------ 7-- 5-- 4----|-------- 0--------12--10---- 9--|
G| 4------ 4------ 4--------------|---- 9--------------------11----|
D|---- 6------ 6------------------|11------------11----------------|
A|--------------------------------| 0------------------------------|
E| 0------------------------------|--------------------------------|
http://classicalguitartablature.blogspot.com/
E|---------------- 4-- 4-- 4-- 4--|---------- 0---- 9-- 9-- 9------|
B|------------------ 7-- 5-- 4----|-------- 0--------12--10---- 9--|
G| 4------ 4---- 4----------------|---- 9--------------------11----|
D|---- 6------ 6------------------|11------------11----------------|
A|--------------------------------| 0------------------------------|
E| 0------------------------------|--------------------------------|
http://classicalguitartablature.blogspot.com/
http://classicalguitartablature.blogspot.com/
E|--------------------------------|--------------------------------|
B|------ 0-- 0 0-- 0-- 0 2-- 4----|-------- 4----------------------|
G| 1---- 1-- 1 1-- 1------------ 4|---------------- 4------------ 1|
D|---- 2------ 2-- 2--------------|---- 6------ 6 7 6-- 7-- 6 4----|
A|--------------------------------|--------------------------------|
E| 0------------------------------| 4-------------- 4--------------|
http://classicalguitartablature.blogspot.com/
E|--------------------------------|--------------------------------|
B|---------- 0-------------- 0----|--------------------------------|
G|------ 1---- 1-------- 1------ 2|-------- 1-------------- 1------|
D|---- 2---------- 2 4------------|---- 4---- 4 2------ 4------ 4--|
A| 4------------ 4----------------| 3-------------- 3--------------|
E|--------------------------------|--------------------------------|
http://classicalguitartablature.blogspot.com/
E|--------------------------------|--------------------------------|
B|------ 0-- 0 0-- 0-- 0 2-- 4----|-------- 4----------------------|
G| 1---- 1-- 1 1-- 1------------ 4|---------------- 4------------ 1|
D|---- 2------ 2-- 2--------------|---- 6------ 6 7 6-- 7-- 6 4----|
A|--------------------------------|--------------------------------|
E| 0------------------------------| 4-------------- 4--------------|
http://classicalguitartablature.blogspot.com/
E|--------------------------------|--------------------------------|
B|---------- 0-------------- 0----|--------------------------------|
G|------ 1---- 1-------- 1------ 2|-------- 1-------------- 1------|
D|---- 2---------- 2 4------------|---- 4---- 4 2------ 4------ 4--|
A| 4------------ 4----------------| 3-------------- 3--------------|
E|--------------------------------|--------------------------------|
http://classicalguitartablature.blogspot.com/
E|--------------------------------|--------------------------------|
B|------ 0-- 4-- 5-------- 5------|------------ 2 4------ 4------ 4|
G| 1 2 2 1------------ 4---- 4----|---- 1 2------------ 2------ 2--|
D| 2------------------ 2------ 2--| 4 4-------------- 2------ 2----|
A|---------------- 4--------------|---------------- 2------ 0------|
E| 0------------------------------| 2------------------------------|
http://classicalguitartablature.blogspot.com/
E|--------------------------------|--------------------------------|
B|---------- 4-- 5---- 5 4---- 5 2|-------- 2-- 2 4------ 4--------|
G|-------- 4---- 4---- 4 4---- 4--|------ 2---- 4-------- 4--------|
D| 6 6 7 6------ 2---- 2 2---- 2--|---- 2------ 4------ 4------ 4--|
A|---------------- 4--------------| 0-------------- 2--------------|
E| 4------------------------------|--------------------------------|
http://classicalguitartablature.blogspot.com/
E| 4-------------------------- 4--|---------- 2-- 2------ 2-- 4 5--|
B| 5------------ 7 7 5-- 4-- 5 2--|------ 2------ 2-- 5-- 2---- 2--|
G| 4------ 4------ 4 4-- 4-- 4 2--|---- 2-------- 2-- 2-- 2-- 2 2--|
D|---- 6------ 6------------ 6----|-- 2-------------- 2------------|
A|--------------------------------| 0------------ 0----------------|
E| 0-------------- 0--------------|--------------------------------|
http://classicalguitartablature.blogspot.com/
E|------ 5-- 4-- 4---------- 4 5--|-------- 4 2 2------------------|
B|---- 2---------- 6 7---- 6------|------ 2-------------- 2------ 5|
G|-- 2---- 2---- 4-- 4------------|---- 2-------- 2---- 2---- 2----|
D|-------------- 6----------------|------------------ 2-------- 2--|
A|-------------- 4----------------|---------------- 2--------------|
E| 2------------------------------| 2------------------------------|
http://classicalguitartablature.blogspot.com/
E| 4---- 4-------------------- 4--|---------- 2-- 2------ 2-- 4 5--|
B|------ 5---- 7-- 7-- 5 4-- 5 2--|------ 2------ 2-- 5-- 2---- 2--|
G|------ 4---- 4-- 4-- 4 4-- 4 2--|---- 2-------- 2-- 2-- 2-- 2 2--|
D|---- 6-------- 6---- 6 6-- 6----|-- 2-------------- 2------------|
A|--------------------------------| 0------------ 0----------------|
E| 0------------ 0----------------|--------------------------------|
http://classicalguitartablature.blogspot.com/
E|------ 5-- 4-- 4---------- 4 5--|-------------------- 4------ 2--|
B|---- 2---------- 6 7---- 6-- 2--|-------- 2---------- 2-------- 5|
G|-- 2---- 2---- 4-- 4-------- 2--|------ 2-- 2 2------------------|
D|-------------- 6----------------|---- 2------ 2---------- 2------|
A|-------------- 4----------------|---------------- 2--------------|
E| 2------------------------------| 2------------------------------|
http://classicalguitartablature.blogspot.com/
E|------------------ 4 4-- 4-- 4--|---------- 0---- 9-- 9-- 9------|
B| 5------------------ 7-- 5 4----|-------- 0--------12--10---- 9--|
G| 4------ 4------ 4--------------|---- 9--------------------11----|
D|---- 6------ 6------------------|11------------11----------------|
A|--------------------------------| 0------------------------------|
E| 0------------------------------|--------------------------------|
http://classicalguitartablature.blogspot.com/
E|---------------- 4-- 4-- 4-- 4--|---------- 0---- 9-- 9-- 9------|
B|------------------ 7-- 5-- 4----|-------- 0--------12--10---- 9--|
G| 4------ 4---- 4----------------|---- 9--------------------11----|
D|---- 6------ 6------------------|11------------11----------------|
A|--------------------------------| 0------------------------------|
E| 0------------------------------|--------------------------------|
http://classicalguitartablature.blogspot.com/
E|--------------------------------|--------------------------------|
B|-- 0----------------------------|--------------------------------|
G| 1------------------------------|--------------------------------|
D| 4---- 4------------------------|--------------------------------|
A|--------------------------------|--------------------------------|
E| 0------------------------------|--------------------------------|
http://classicalguitartablature.blogspot.com/

0 ความคิดเห็น:

แสดงความคิดเห็น