To celebrate the anniversary, I am giving you (finally...) : iPhone LickByNeck !!!!!!

Magic Moments (BASIC)

Perry Como's tune fingerstyle chord melody guitar BASIC arrangement played in the key of D.

Magic Moments-Perry Como-BASIC Arrangement played in the key of D.
http://classicalguitartablature.blogspot.com/
E| 2-- 2-- 2 3 5-------------- 2--|---------------- 2--------------|
B| 3------ 2------ 3-- 3-- 3 5 3--| 0-- 0 0-- 2 3-- 2------ 5------|
G| 2------ 2------ 2---- 2--------| 0------ 0-------------- 2------|
D|---------------- 4------ 4------| 0------ 0---------- 2------ 2--|
A| 5------ 4------ 2--------------|---------------- 0------ 4------|
E|------------------------ 2------| 0------ 3----------------------|
http://classicalguitartablature.blogspot.com/
E|---- 2-- 2 3 5------------ 0 2--|---------------- 2------ 0------|
B| 3------ 2------ 3-- 3-- 3------| 0-- 0-- 0 2 3-- 0------ 2------|
G| 2------ 2------ 2---- 2--------| 0------ 2----------------------|
D| 4-------------- 4---- 4--------| 0------ 2---------- 0 2---- 2--|
A| 5------ 4------ 2------ 0------|------------------------ 0------|
E|--------------------------------| 3------ 2------ 0--------------|
http://classicalguitartablature.blogspot.com/
http://classicalguitartablature.blogspot.com/
E|--------------------------------|-------------- 5----------------|
B| 3---------------------------- 2|-------------------- 2-------- 0|
G| 2-------------- 2--------------|---- 2-------------- 2----------|
D|---- 4------ 4------ 4------ 4--|---- 4------ 4------ 4------ 4--|
A| 5------------------------------|------ 4------ 0----------------|
E|-------- 2------ 5------ 2------| 2---------------------- 2------|
http://classicalguitartablature.blogspot.com/
E|---------------- 5------ 3------| 2------------------------------|
B|-------- 3-------------- 5-- 5--|---- 2---------- 5--------------|
G|---- 0-- 2-- 2------ 0-- 4-- 4--|---- 2---------- 2---------- 6--|
D|---- 0------ 2------ 0-- 5-- 5--|---- 2------ 2------ 2------ 5--|
A|--------------------------------| 0------ 2------ 4------ 7------|
E| 3------ 2------ 0------ 3------|--------------------------------|
http://classicalguitartablature.blogspot.com/
E|--------------------------------|-------------- 5----------------|
B| 3---------------------------- 2|-------------------- 2-------- 0|
G| 2-------------- 2--------------|---- 2-------------- 2----------|
D|---- 4------ 4------ 4------ 4--|---- 4------ 4------ 4------ 4--|
A| 5------------------------------|------ 4------ 0----------------|
E|-------- 2------ 5------ 2------| 2---------------------- 2------|
http://classicalguitartablature.blogspot.com/
E|---------------- 5------ 3------| 2------------------------------|
B|-------- 3-------------- 5-- 5--|---- 2---------- 5--------------|
G|---- 0-- 2-- 2------ 0-- 4-- 4--|---- 2---------- 2---------- 6--|
D|---- 0------ 2------ 0-- 5-- 5--|---- 2------ 2------ 2------ 5--|
A|--------------------------------| 0------ 2------ 4------ 7------|
E| 3------ 2------ 0------ 3------|--------------------------------|
http://classicalguitartablature.blogspot.com/
E|---- 2-- 2 3 5-------------- 2--|---------------- 2--------------|
B| 3------ 2------ 3-- 3-- 3 5 3--| 0-- 0 0-- 2 3-- 2------ 5------|
G| 2------ 2------ 2---- 2--------| 0------ 0-------------- 2------|
D| 4-------------- 4------ 4------| 0------ 0---------- 2------ 2--|
A| 5------ 4------ 2--------------|---------------- 0------ 4------|
E|------------------------ 2------| 0------ 3----------------------|
http://classicalguitartablature.blogspot.com/
E|---- 2-- 2 3 5------------ 0 2--|---------------- 2------ 0------|
B| 3------ 2------ 3-- 3-- 3------| 0-- 0-- 0 2 3-- 0------ 2------|
G| 2------ 2------ 2---- 2--------| 0------ 2----------------------|
D| 4-------------- 4---- 4--------| 0------ 2---------- 0 2---- 2--|
A| 5------ 4------ 2------ 0------|------------------------ 0------|
E|--------------------------------| 3------ 2------ 0--------------|
http://classicalguitartablature.blogspot.com/
E|--------------------------------|-------------- 5----------------|
B| 3---------------------------- 2|-------------------- 2-------- 0|
G| 2-------------- 2--------------|---- 2-------------- 2----------|
D|---- 4------ 4------ 4------ 4--|---- 4------ 4------ 4------ 4--|
A| 5------------------------------|------ 4------ 0----------------|
E|-------- 2------ 5------ 2------| 2---------------------- 2------|
http://classicalguitartablature.blogspot.com/
E|---------------- 5------ 3------| 2------------------------------|
B|-------- 3-------------- 5-- 5--|---- 2---------- 5--------------|
G|---- 0-- 2-- 2------ 0-- 4-- 4--|---- 2---------- 2---------- 6--|
D|---- 0------ 2------ 0-- 5-- 5--|---- 2------ 2------ 2------ 5--|
A|--------------------------------| 0------ 2------ 4------ 7------|
E| 3------ 2------ 0------ 3------|--------------------------------|
http://classicalguitartablature.blogspot.com/
E|--------------------------------|-------------- 5----------------|
B| 3---------------------------- 2|-------------------- 2-------- 0|
G| 2-------------- 2--------------|---- 2-------------- 2----------|
D|---- 4------ 4------ 4------ 4--|---- 4------ 4------ 4------ 4--|
A| 5------------------------------|------ 4------ 0----------------|
E|-------- 2------ 5------ 2------| 2---------------------- 2------|
http://classicalguitartablature.blogspot.com/
E|---------------- 5------ 3------| 2------------------------------|
B|-------- 3-------------- 5-- 5--|---- 2---------- 5--------------|
G|---- 0-- 2-- 2------ 0-- 4-- 4--|---- 2---------- 2---------- 6--|
D|---- 0------ 2------ 0-- 5-- 5--|---- 2------ 2------ 2------ 5--|
A|--------------------------------| 0------ 2------ 4------ 7------|
E| 3------ 2------ 0------ 3------|--------------------------------|
http://classicalguitartablature.blogspot.com/
E|-------- 2------ 3---- 5--------|10--------------------10--------|
B|---- 3-------------- 3 3--------|10--------------------10--------|
G|---- 2-------------- 2----------|11------------------------------|
D|---- 4------ 2------ 4------ 4--|----12------12------12------12--|
A| 5------ 4------ 2------ 0------|-------- 0-------------- 0------|
E|--------------------------------|10--------------10--------------|
http://classicalguitartablature.blogspot.com/
E|12----------------------10------|------------------------ 2------|
B|---- 0------ 0------------------| 5---------------------- 3------|
G|---- 0-------------- 7----------| 3-------------------- 3--------|
D|-------------------- 9------ 9--|---- 5------ 5------ 4------ 2--|
A|10------------------------------|-------- 5----------------------|
E|-------- 7------10------ 7------| 3-------------- 6------ 3------|
http://classicalguitartablature.blogspot.com/
E|---------------- 5--------------|-------------- 5----------------|
B| 3-------------- 3------------ 2|-------------------- 2----------|
G| 2-------------- 2--------------|---- 2-------------- 2----------|
D|---- 4------ 4------ 4------ 4--|---- 4------ 4------ 4------ 4--|
A| 5-------------- 0--------------|------ 4------ 0----------------|
E|-------- 2-------------- 2------| 2---------------------- 2------|
http://classicalguitartablature.blogspot.com/
E| 7------------------------------|---- 2-- 2 3 5-------------- 2--|
B|---- 0---------- 2--------------| 3------ 2------ 3-- 3 3-- 5 3--|
G|---- 0---------- 2--------------| 2------ 2------ 2---- 2--------|
D|---- 0------ 0------ 2------ 2--| 4-------------- 4--------------|
A|---------------- 0------ 0------| 5------ 4------ 2--------------|
E| 3------ 0----------------------|------------------------ 2------|
http://classicalguitartablature.blogspot.com/
E|--------------------------------|--------------------------------|
B| 0-- 0-- 2 3 5-- 3--------------|--------------------------------|
G| 0------ 2------ 2--------------|--------------------------------|
D|---------------- 4--------------|--------------------------------|
A|-------- 0------ 5------ 5------|--------------------------------|
E| 0------------------------------|--------------------------------|
http://classicalguitartablature.blogspot.com/

0 ความคิดเห็น:

แสดงความคิดเห็น