To celebrate the anniversary, I am giving you (finally...) : iPhone LickByNeck !!!!!!

Music Box Dancer (BASIC)

Frank Mills' tune fingerstyle chord melody guitar BASIC arrangement played in the key of A.

Music box dancer-Frank Mills-BASIC ARRANGEMENT played in the key of A.
http://classicalguitartablature.blogspot.com/
E|---------------- 5--------------|---------------- 5--------------|
B|-------- 5---------- 5------ 5--|-------- 5---------- 5------ 5--|
G|---- 6------ 6-------- 6--------|---- 6------ 6---------- 6------|
D|--------------------------------|--------------------------------|
A| 0------------------------------| 0------------------------------|
E|--------------------------------|--------------------------------|
http://classicalguitartablature.blogspot.com/
E|---------------- 5--------------|---------------- 5--------------|
B|-------- 5---------- 5------ 5--|-------- 5---------- 5----------|
G|---- 6------ 6---------- 6------|---- 6------ 6---------- 6------|
D|--------------------------------|---------------------------- 7--|
A| 0------------------------------| 0------------------------------|
E|--------------------------------|--------------------------------|
http://classicalguitartablature.blogspot.com/
http://classicalguitartablature.blogspot.com/
E|------------------------ 0------| 5-- 4------ 0-------------- 0--|
B|------------ 2------ 2----------| 7------ 7----------------------|
G| 2------ 2------ 2---------- 2 6|------------------------ 2------|
D|---- 2--------------------------|-------------------- 2----------|
A| 0---------------------------- 5|---------------- 0--------------|
E|--------------------------------|--------------------------------|
http://classicalguitartablature.blogspot.com/
E| 0------------------------------|-------- 2----------------------|
B| 0-- 3-- 0-------------- 0-- 3--| 2---------- 5---------- 5------|
G| 1---------- 1------ 1----------|---- 2---------------------- 2--|
D|---------------- 2--------------|-------------------- 2----------|
A|--------------------------------| 0-------------- 0--------------|
E| 0-------------- 0--------------|--------------------------------|
http://classicalguitartablature.blogspot.com/
E|------------------------ 0------| 5-- 4------ 0-------------- 0--|
B|------------ 2------ 2----------| 7------ 7----------------------|
G| 2------ 2------ 2---------- 2 6|------------------------ 2------|
D|---- 2--------------------------|-------------------- 2----------|
A| 0---------------------------- 5|---------------- 0--------------|
E|--------------------------------|--------------------------------|
http://classicalguitartablature.blogspot.com/
E| 0------------------------------|--------------------------------|
B| 0-- 3-- 0-------------- 0------|-------- 2----------------------|
G| 1---------- 1------ 1------ 1--| 2---------- 2---------- 2-- 2--|
D|------ 2-------- 2--------------|---- 2-------------- 2----------|
A|--------------------------------| 0-------------- 0--------------|
E| 0-------------- 0--------------|--------------------------------|
http://classicalguitartablature.blogspot.com/
E|------------------------ 0------| 5-- 4------ 0-------------- 0--|
B|------------ 2------ 2----------| 7------ 7----------------------|
G| 2------ 2------ 2---------- 2 6|------------------------ 2------|
D|---- 2--------------------------|-------------------- 2----------|
A| 0---------------------------- 5|---------------- 0--------------|
E|--------------------------------|--------------------------------|
http://classicalguitartablature.blogspot.com/
E| 0------------------------------|-------- 2----------------------|
B| 0-- 3-- 0-------------- 0-- 3--| 2---------- 5---------- 5------|
G| 1---------- 1------ 1----------|---- 2---------------------- 2--|
D|---------------- 2--------------|-------------------- 2----------|
A|--------------------------------| 0-------------- 0--------------|
E| 0-------------- 0--------------|--------------------------------|
http://classicalguitartablature.blogspot.com/
E|------------------------ 0------| 5-- 4------ 0-------------- 0--|
B|------------ 2------ 2----------| 7------ 7----------------------|
G| 2------ 2------ 2---------- 2 6|------------------------ 2------|
D|---- 2--------------------------|-------------------- 2----------|
A| 0---------------------------- 5|---------------- 0--------------|
E|--------------------------------|--------------------------------|
http://classicalguitartablature.blogspot.com/
E| 0------------------------------|--------------------------------|
B| 0-- 3-- 0-------------- 0------|-------- 2----------------------|
G| 1---------- 1------ 1------ 1--| 2---------- 2---------- 2-- 2--|
D|------ 2-------- 2--------------|---- 2-------------- 2----------|
A|--------------------------------| 0-------------- 0--------------|
E| 0-------------- 0--------------|--------------------------------|
http://classicalguitartablature.blogspot.com/
E| 5-------------------------- 2--|-------- 2----------------------|
B|---- 7------------------ 3------| 5---------- 5-------------- 5--|
G|-------- 7---------- 2----------|---- 2------------------ 2------|
D|------------ 7-- 4--------------|-------------------- 2----------|
A| 5-------------- 5--------------| 0-------------- 0--------------|
E|--------------------------------|--------------------------------|
http://classicalguitartablature.blogspot.com/
E| 0------------------------------|-------- 2----------------------|
B| 0-- 3-- 0-------------- 0-- 3--| 2---------- 5---------- 5------|
G| 1---------- 1------ 1----------|---- 2---------------------- 2--|
D|---------------- 2--------------|-------------------- 2----------|
A|--------------------------------| 0-------------- 0--------------|
E| 0-------------- 0--------------|--------------------------------|
http://classicalguitartablature.blogspot.com/
E| 5-------------------------- 2--|-------- 2----------------------|
B|---- 7------------------ 3------| 5---------- 5-------------- 5--|
G|-------- 7---------- 2----------|---- 2------------------ 2------|
D|------------ 7-- 4--------------|-------------------- 2----------|
A| 5-------------- 5--------------| 0-------------- 0--------------|
E|--------------------------------|--------------------------------|
http://classicalguitartablature.blogspot.com/
E| 0------------------------------|--------------------------------|
B| 0-- 3-- 0-------------- 0------|-------- 2----------------------|
G| 1---------- 1------ 1------ 1--| 2---------- 2---------- 2-- 2--|
D|------ 2-------- 2--------------|---- 2-------------- 2----------|
A|--------------------------------| 0-------------- 0--------------|
E| 0-------------- 0--------------|--------------------------------|
http://classicalguitartablature.blogspot.com/
E|--------------------------------|--------------------------------|
B|----------------10--------------|----------------10--------------|
G|-------- 9---------- 9------ 9--|-------- 9---------- 9------ 9--|
D|----11------11----------11------|----11------11----------11------|
A| 0------------------------------| 0------------------------------|
E|--------------------------------|--------------------------------|
http://classicalguitartablature.blogspot.com/
E|--------------------------------|--------------------------------|
B|------------------10------------|--------------------10----------|
G|-------- 9------------ 9--------|-- 9-------------- 9------------|
D|----11------11--------------11--|----------------11--------------|
A| 0------------------------------|---------------- 0--------------|
E|--------------------------------|--------------------------------|
http://classicalguitartablature.blogspot.com/
E|--------------------------------|--------------------------------|
B|--------------------------------|--------------------------------|
G|--------------------------------|--------------------------------|
D|--------------------------------|--------------------------------|
A|--------------------------------|--------------------------------|
E|--------------------------------|--------------------------------|
http://classicalguitartablature.blogspot.com/

0 ความคิดเห็น:

แสดงความคิดเห็น