To celebrate the anniversary, I am giving you (finally...) : iPhone LickByNeck !!!!!!

Thank You For The Music (BASIC)

ABBA's tune fingerstyle chord melody guitar BASIC arrangement played in the key of E. Happy 3rd anniverary!!

Thank You For The Music-ABBA-BASIC ARRANGEMENT played in the key of E.
http://classicalguitartablature.blogspot.com/
E|---------------- 0------ 0------|--------------------------------|
B|------------ 4------ 4------ 0--|--------------------------------|
G|-------- 4---------- 3----------|-------- 2---------- 1----------|
D|---- 6-------------- 2----------|---- 2------ 2---------- 4------|
A|--------------------------------|---------------- 2--------------|
E| 0-------------- 3--------------| 2------------------------------|
http://classicalguitartablature.blogspot.com/
E|--------------------------------|--------------------------------|
B| 5-- 5-- 5-- 5------ 4-- 2-- 0--|---- 0-- 0-- 0------ 2-- 0------|
G| 4-- 4-- 4-- 3------ 3------ 2--|---- 2-- 2-- 2------ 2-- 2------|
D| 6-- 6------ 2------ 2------ 2--|---- 2-- 2-- 1------ 1-- 1-- 6--|
A|--------------------------------|---------------- 2--------------|
E| 0-------------- 3--------------| 2------------------------------|
http://classicalguitartablature.blogspot.com/
http://classicalguitartablature.blogspot.com/
E|---------------- 4-- 7----------|------ 9---- 7------------------|
B|-------- 5------ 5--------------|---- 7------ 7------ 9-- 7------|
G| 6------------ 4------------ 4--| 7------------------------------|
D|--------------------------------| 7-------------------------- 9--|
A|--------------------------------|--------------------------------|
E| 0------------ 0----------------| 7-------------- 0--------------|
http://classicalguitartablature.blogspot.com/
E|--------------------------------|--------------------------------|
B| 2-- 5------ 2---------- 2------| 2-- 3------ 2------ 3-- 2------|
G| 2------ 4 2---------------- 4--| 4------ 4-- 4------ 4-- 4-- 2--|
D| 2------------------ 2----------| 3------------------ 3-- 3------|
A| 0-------------- 0--------------| 4------------------------------|
E|--------------------------------|---------------- 3--------------|
http://classicalguitartablature.blogspot.com/
E|--------------------------------|-------- 7---------- 9------ 7--|
B|--------------------------------|---- 7------ 7-- 8------ 9------|
G|-------- 2---------- 2---- 3----| 8-------------- 8--------------|
D|-- 2-------- 2------ 2---- 2----|---------------- 7--------------|
A|---------------- 4------ 3------|---------------- 8--------------|
E| 2------------------------------| 7------------------------------|
http://classicalguitartablature.blogspot.com/
E|--------------------------------|--------------------------------|
B| 0---------- 0------------------| 0 2-------- 0-------------- 0--|
G|---- 6-------------- 6----------| 2-- 3---------------- 2--------|
D|-------- 8------------------ 8--| 1------------------ 1----------|
A|--------------------------------| 2-------------- 2--------------|
E| 0-------------- 0--------------|--------------------------------|
http://classicalguitartablature.blogspot.com/
E| 4-- 4-- 4-- 4------ 4------ 4--| 4------ 4-- 5------ 5-- 4------|
B| 5-- 5-- 5-- 5------ 5------ 5--| 5-- 7-- 5-- 5------ 5------ 7--|
G| 4-- 4-- 4-- 5------ 5------ 5--| 6-- 6-- 6-- 5------ 5----------|
D|------------------------ 6------|--------------------------------|
A|--------------------------------| 0-------------- 0--------------|
E| 0-------------- 0--------------|--------------------------------|
http://classicalguitartablature.blogspot.com/
E|--------------------------------|--------------------------------|
B| 5-------------- 4 5---- 5------| 5------ 5------ 4 5-------- 4--|
G|---------------- 6 6---- 6------| 6------ 6---- 6-- 6---- 6------|
D|---- 6-- 6-- 6-------------- 6--| 7------ 7------ 7 7------------|
A| 4------ 4------ 4------ 4------| 4------ 4------ 4------ 4------|
E|--------------------------------|--------------------------------|
http://classicalguitartablature.blogspot.com/
E| 0------------------------------|-------- 7------ 7------ 7------|
B| 2------------------------------|-------- 7------ 5------ 4------|
G| 2-- 2-- 2---------- 1-- 2-- 4--|-------- 8---------- 6-- 4------|
D|---- 2-- 2---------- 2-- 2------|---- 7------ 9-------------- 4--|
A|--------------------------------| 6-------------- 4------ 6------|
E| 2------ 2------ 0------ 0------|-------- 7----------------------|
http://classicalguitartablature.blogspot.com/
E| 7-- 7-- 7 7-- 5---- 4----------|---------------- 2-- 0----------|
B| 5-- 5-- 5 5-- 2---- 2------ 2--| 5------ 4------ 0-- 0----------|
G| 4-- 4-- 4-- 4 2----------------| 2-------------- 1-- 1------ 1--|
D|------------------------ 2------|---- 2------ 2---------- 2------|
A|--------------------------------| 2------------------------------|
E| 0-------------- 2--------------|---------------- 0--------------|
http://classicalguitartablature.blogspot.com/
E|--------------------------------| 4------------------------------|
B|---- 4------ 2-- 4---------- 2--| 5------ 7------ 5-- 4----------|
G|---- 4------ 4-- 4------ 4------| 6-------------- 6-- 6------ 6--|
D|-------- 2---------- 2----------|---- 6---------- 7-- 7-- 7------|
A| 4-------------- 2--------------|--------------------------------|
E|--------------------------------| 6-------------- 7--------------|
http://classicalguitartablature.blogspot.com/
E| 7-- 7-- 7 7-- 5---- 4----------|---------------------------- 4--|
B| 5-- 5-- 5 5-- 2---- 2------ 2--| 5------ 4---- 7---- 5-- 7-- 5--|
G| 4-- 4-- 4-- 4 2----------------| 5------ 5---- 4---- 4-- 4-- 6--|
D|------------------------ 2------| 4-- 4---- 4-- 6---- 6-- 6------|
A|--------------------------------|-------------- 4----------------|
E| 0-------------- 2--------------| 4------------------------------|
http://classicalguitartablature.blogspot.com/
E|-------- 4------------------ 4--|-------- 4-------- 4---- 5-- 7--|
B|---- 7-------- 7---- 5-- 7-- 5--|---- 7-------- 7------------ 5--|
G|------------ 6------ 6-- 6-- 5--|---- 5------ 5-------------- 4--|
D|--------------------------------|--------------------------------|
A| 0-------------- 0--------------| 0-------------- 0--------------|
E|--------------------------------|--------------------------------|
http://classicalguitartablature.blogspot.com/
E|---- 7 7 7-- 7------ 4-- 5-- 7--|-------- 4------ 5------ 7------|
B|------------ 7------------------|-------- 6------ 7------ 9------|
G|------------ 4------------------|-------- 4---------- 4------ 6--|
D|--------------------------------|---- 6------ 6------------------|
A|---------------- 5--------------| 4------ 4------ 6------ 8------|
E| 0------------------------------|--------------------------------|
http://classicalguitartablature.blogspot.com/
E| 9-- 9 9-- 9--------------------|---------------- 4--------------|
B|10--1010--1012----10------------| 5------ 4------ 7-- 7------ 5--|
G| 9-- 9 9-- 9------ 9------------| 6------ 6------ 4-- 4----------|
D|------------11----11--------11--|---- 7------ 7------ 4----------|
A| 9------------------------------|-------------- 6----------------|
E|--------12------ 9--------------| 7------------------------------|
http://classicalguitartablature.blogspot.com/
E|--------------------------------|--------------------------------|
B|-------- 5-------------- 5-- 4--|-------- 5----------------------|
G|---- 4------------ 5------------|---- 4---------- 5--------------|
D| 6---------- 6-- 7--------------| 6---------- 6-- 7--------------|
A|--------------------------------|--------------------------------|
E| 0-------------- 0--------------| 0-------------- 0--------------|
http://classicalguitartablature.blogspot.com/
E|--------------------------------|--------------------------------|
B| 7---------- 7------------------| 5---------- 5-------- 5---- 9--|
G|-------- 9-------------- 9-- 8--| 4-- 4-------------- 4----------|
D|----10--------------10----------| 6-------------- 6--------------|
A|--------------------------------|--------------------------------|
E| 0------------------------------| 0------------------------------|
http://classicalguitartablature.blogspot.com/
E|--------------------------------|--------------------------------|
B|------ 7-------------------- 7--|---- 5---------------- 5---- 9--|
G|---------------- 9-- 8------ 4--|------------ 4---- 4-------- 9--|
D|--10------10---------------- 6--|-------- 6------ 6----------10--|
A|--------------------------------|--------------------------------|
E| 0------------------------------| 0------------------------------|
http://classicalguitartablature.blogspot.com/
E|------------ 5------ 4----------|--------------------------------|
B|-------- 7---------- 4----------| 7------ 5------ 5------ 4------|
G|---------------------------- 5--| 4------ 4------ 4------ 4---- 2|
D|----10------------------ 4------|---- 6------ 6-- 6-- 6------ 6 2|
A|--------------------------------| 4------------------------------|
E| 0-------------- 4--------------|---------------- 7------------ 2|
http://classicalguitartablature.blogspot.com/
E|------------------ 2 4-------- 4|-- 5 7--------------------------|
B| 2 4 5---------- 5------------ 4|-------------------- 5----------|
G|---------- 2---- 2---------- 2--| 4---------- 4------ 6------ 6--|
D|-------- 2------ 2------ 2------|-------- 4---------- 7-- 7------|
A|--------------------------------| 6------------------------------|
E|---------------- 0--------------|---------------- 7--------------|
http://classicalguitartablature.blogspot.com/
E| 7-- 7-- 7 7-- 5---- 4----------|---------------- 2-- 0----------|
B| 5-- 5-- 5 5-- 2---- 2------ 2--| 5------ 4------ 0-- 0----------|
G| 4-- 4-- 4-- 4 2----------------| 2-------------- 1-- 1------ 1--|
D|------------------------ 2------|---- 2------ 2---------- 2------|
A|--------------------------------| 2------------------------------|
E| 0-------------- 2--------------|---------------- 0--------------|
http://classicalguitartablature.blogspot.com/
E|--------------------------------| 4------------------------------|
B|---- 4------ 2-- 4---------- 2--| 5------ 7------ 5-- 4----------|
G|---- 4------ 4-- 4------ 4------| 6-------------- 6-- 6------ 6--|
D|-------- 2---------- 2----------|---- 6---------- 7-- 7-- 7------|
A| 4-------------- 2--------------|--------------------------------|
E|--------------------------------| 6-------------- 7--------------|
http://classicalguitartablature.blogspot.com/
E| 7-- 7-- 7 7-- 5---- 4----------|---------------------------- 4--|
B| 5-- 5-- 5 5-- 2---- 2------ 2--| 5------ 4---- 7---- 5-- 7-- 5--|
G| 4-- 4-- 4-- 4 2----------------| 5------ 5---- 4---- 4-- 4-- 6--|
D|------------------------ 2------| 4-- 4---- 4-- 6---- 6-- 6------|
A|--------------------------------|-------------- 4----------------|
E| 0-------------- 2--------------| 4------------------------------|
http://classicalguitartablature.blogspot.com/
E|-------- 4------------------ 4--|-------- 4-------- 4---- 5-- 7--|
B|---- 7-------- 7---- 5-- 7-- 5--|---- 7-------- 7------------ 5--|
G|------------ 6------ 6-- 6-- 5--|---- 5------ 5-------------- 4--|
D|--------------------------------|--------------------------------|
A| 0-------------- 0--------------| 0-------------- 0--------------|
E|--------------------------------|--------------------------------|
http://classicalguitartablature.blogspot.com/
E|---- 7 7 7-- 7------ 4-- 5-- 7--|-------- 4------ 5------ 7------|
B|------------ 7------------------|-------- 6------ 7------ 9------|
G|------------ 4------------------|-------- 4---------- 4------ 6--|
D|--------------------------------|---- 6------ 6------------------|
A|---------------- 5--------------| 4------ 4------ 6------ 8------|
E| 0------------------------------|--------------------------------|
http://classicalguitartablature.blogspot.com/
E| 9-- 9 9-- 9--------------------|---------------- 4--------------|
B|10--1010--1012----10------------| 5------ 4------ 7-- 7------ 5--|
G| 9-- 9 9-- 9------ 9------------| 6------ 6------ 4-- 4----------|
D|------------11----11--------11--|---- 7------ 7------ 4----------|
A| 9------------------------------|-------------- 6----------------|
E|--------12------ 9--------------| 7------------------------------|
http://classicalguitartablature.blogspot.com/
E|--------------------------------|--------------------------------|
B|-------- 5-------------- 5-- 4--|-------- 5----------------------|
G|---- 4------------ 5------------|---- 4---------- 5--------------|
D| 6---------- 6-- 7--------------| 6---------- 6-- 7--------------|
A|--------------------------------|--------------------------------|
E| 0-------------- 0--------------| 0-------------- 0--------------|
http://classicalguitartablature.blogspot.com/
E|-------- 0----------------------|--------------------------------|
B|------ 0------------------------|--------------------------------|
G|---- 1--------------------------|--------------------------------|
D|-- 4----------------------------|--------------------------------|
A|-- 2----------------------------|--------------------------------|
E| 0------------------------------|--------------------------------|
http://classicalguitartablature.blogspot.com/

0 ความคิดเห็น:

แสดงความคิดเห็น