To celebrate the anniversary, I am giving you (finally...) : iPhone LickByNeck !!!!!!

Theme From The Civil War - Ashokan Farewell (BASIC)

Jay Ungar's tune fingerstyle chord melody guitar BASIC arrangement played in the key of A.

Ashokan Farewell-Theme From The Civil War-Jay Ungar-BASIC ARRANGEMENT played in the key of A.
http://classicalguitartablature.blogspot.com/
E|---------- 0------------|------------ 0-- 0-- 4--|
B|------ 0------ 0--------|-------- 0--------------|
G|-- 2-------------- 2----|---- 1------------------|
D| 2----------------------| 2----------------------|
A|------------------------|------------------------|
E| 0----------------------| 0----------------------|
http://classicalguitartablature.blogspot.com/
E| 5---------- 4-- 2------|------------------------|
B|------------ 2-- 2-- 5--| 2---------- 2------ 2--|
G|-------- 2--------------|------ 2-------- 4------|
D|---- 2---------------- 2|---- 2------------------|
A| 0----------------------| 4----------------------|
E|------------------------|------------------------|
http://classicalguitartablature.blogspot.com/
http://classicalguitartablature.blogspot.com/
E|------------------------|------------------------|
B| 3---------- 2-- 0------|------------ 2----------|
G|-------- 2---------- 2--|---- 2---------- 2------|
D|---- 4------------------| 4------------------ 4--|
A| 5----------------------| 2----------------------|
E|------------------------|------------------------|
http://classicalguitartablature.blogspot.com/
E|------------------------|-------------- 9------ 9|
B|-------------- 2--------|------10----------------|
G|-------- 2---- 4--------| 9---- 9----------------|
D| 2---------- 2------ 2--|----11------11----11----|
A| 0----------------------| 9----------------------|
E|---------------- 4------|------------------------|
http://classicalguitartablature.blogspot.com/
E|----------10-- 9--------| 7----------------------|
B| 7---- 7----------------| 7---------- 7------ 9--|
G|-- 6---------------- 6--|-------- 7------ 9------|
D|------------------------|---- 7------------------|
A| 5----------------------|------------------------|
E|------------------------| 0----------------------|
http://classicalguitartablature.blogspot.com/
E| 5---------- 4-- 2------|------------------------|
B| 2------ 2---------- 5--| 2---------- 2----------|
G| 2-- 2------------------| 0------ 0------ 4-- 6--|
D|------------------------|---- 2-------- 5--------|
A| 0----------------------|---------------- 6---- 5|
E|------------------------| 0----------------------|
http://classicalguitartablature.blogspot.com/
E|------------------------|------------------------|
B| 3---------- 2----------|------------ 2----------|
G| 4------ 4------ 4-- 2--|-- 2------------ 2------|
D| 4-- 4------------------| 4------------------ 4--|
A|------------------------| 2----------------------|
E|------------------------|------------------------|
http://classicalguitartablature.blogspot.com/
E|------------------------|---------------- 9------|
B|-------------- 2--------|--------10------10------|
G|-------- 2--------------| 9------ 9--------------|
D| 2---------- 2------ 2--|----11------11------11--|
A| 0----------------------|------------------------|
E|------------------------| 9----------------------|
http://classicalguitartablature.blogspot.com/
E|---------------- 7------| 5----------------------|
B| 5------ 9------ 5------|------------ 2-- 2 3----|
G| 7------ 7------ 4-- 4--|-------- 2--------------|
D|---- 6-- 9-- 9----------|---- 2------------------|
A| 7----------------------| 0----------------------|
E|-------- 7------ 4------|------------------------|
http://classicalguitartablature.blogspot.com/
E| 0----------------------| 5----------------------|
B|------------ 2----------| 2---------- 2-- 5------|
G|-------- 2------ 2------|-------- 2---------- 2--|
D|---- 2-------------- 2--|---- 2------------------|
A| 0----------------------| 4----------------------|
E|------------------------|------------------------|
http://classicalguitartablature.blogspot.com/
E| 2---------- 4-- 5------|------------------------|
B| 2-------------- 5-- 5--| 2---------- 2----------|
G| 2-------------- 2-- 2--| 2------ 2------ 4------|
D|---- 4-------------- 4--|---- 2-------------- 2--|
A| 5----------------------| 0----------------------|
E|-------- 0------ 2------|---------------- 0------|
http://classicalguitartablature.blogspot.com/
E|------------------------|------------------------|
B| 2----------------------|-------- 2--------------|
G|-- 2------ 4-- 2--------|---- 2------ 2----------|
D|-------- 2---------- 2--| 4-------------- 0------|
A| 0----------------------|------------------------|
E|------------------------| 2----------------------|
http://classicalguitartablature.blogspot.com/
E|------------------ 0----| 0----------------------|
B|-------- 0--------------| 0---------- 0------ 0--|
G|---- 1------ 1----------|-------- 4------ 6------|
D| 2------------ 2--------|---- 6------------------|
A|------------------------| 5----------------------|
E| 0----------------------|------------------------|
http://classicalguitartablature.blogspot.com/
E|------------------------| 3------------ 3---- 5--|
B|-------- 2------ 5------| 2---------- 2----------|
G| 2----------------------|-------- 2--------------|
D|---- 2------ 2------ 2--|---- 2------------------|
A| 4----------------------|------------------------|
E|------------------------| 3----------------------|
http://classicalguitartablature.blogspot.com/
E| 2---------- 4-- 5------|------------------------|
B| 2-------------- 3------| 5------ 2--------------|
G| 2-------------- 2------| 2------------------ 2--|
D|---- 4-------------- 4--|---- 2------ 2----------|
A| 5----------------------| 0----------------------|
E|-------- 0------ 2------|---------------- 0------|
http://classicalguitartablature.blogspot.com/
E|------------------------|-- 5--------------------|
B|-------------- 2--------| 5-------------- 2------|
G|-------- 2---- 4--------|---- 2------ 2----------|
D| 2---------- 2------ 2--| 2------ 2---------- 2--|
A| 0----------------------|------------------------|
E|---------------- 4------| 2----------------------|
http://classicalguitartablature.blogspot.com/
E|------------------------|------------------------|
B| 0----------------------|------------ 2-- 2------|
G|-------- 2------ 1------| 2------ 2---------- 2--|
D|---- 2------ 0-- 2-- 2--|---- 2------------------|
A|------------------------| 0----------------------|
E| 0------ 2------ 4------|------------------------|
http://classicalguitartablature.blogspot.com/
E|------------------------|------ 0------ 5--------|
B|-------------------- 2--|------ 3-------- 5------|
G|---------- 2-------- 2--|---- 2-------- 6--------|
D| 2-------- 2------ 2----|------------------------|
A|-- 0--------------------|------------------------|
E|---------- 3------ 2----|---- 1-------- 0--------|
http://classicalguitartablature.blogspot.com/
E|------------------------|------------------------|
B|-- 2-------- 0----------|------------------------|
G|-- 2-------- 2----------|-------- 2---- 1--------|
D|-- 4-------- 4----------|------ 2---- 2----------|
A| 6-------- 5------------|------ 4---- 2----------|
E|------------------------|------------------------|
http://classicalguitartablature.blogspot.com/
E|------------------------|------------------------|
B|------------------------|------------------------|
G|------------------------|---- 2------------------|
D|------------------------|-- 2--------------------|
A|------------------------|-- 0--------------------|
E|------------------------|------------------------|
http://classicalguitartablature.blogspot.com/

0 ความคิดเห็น:

แสดงความคิดเห็น