To celebrate the anniversary, I am giving you (finally...) : iPhone LickByNeck !!!!!!

You Only Live Twice - James Bond

Nancy Sinatra's James Bond tune fingerstyle chord melody guitar BASIC arrangement played in the key of E.

You Only Live Twice-James Bond-Nancy Sinatra-BASIC Arrangement played in the key of E.
http://classicalguitartablature.blogspot.com/
E|--------------------------------|--------------------------------|
B| 8------------------------------|---------------------------- 0--|
G| 8------------------------------|---------------- 2---- 0--------|
D| 7------------------------------|-------------------- 1----------|
A|--------------------------------|---- 6---------- 2--------------|
E| 7------------------------------| 5------ 3-- 7------------------|
http://classicalguitartablature.blogspot.com/
E|---------- 7---------------- 712|--111211-- 911 9--------------10|
B|10------ 8----10------ 8------ 9|-------------- 9------12------ 7|
G|---- 8------------ 8---------- 9|-------------------------- 9----|
D|---- 7--------------------------|------------------ 9------------|
A|--------------------------------|--------------------------------|
E| 7------------------------------| 0---------------------------- 7|
http://classicalguitartablature.blogspot.com/
http://classicalguitartablature.blogspot.com/
E|-- 910-- 9 7 9 7----------------|12--111211 911-- 9--------------|
B|-------------- 7------10--------| 9-------------- 9------12------|
G| 7-------------------------- 7--| 9-------------------------- 9--|
D|-------------------- 7----------|-------------------- 9----------|
A|--------------------------------|--------------------------------|
E|---------------- 7--------------| 0-------------- 0--------------|
http://classicalguitartablature.blogspot.com/
E|10-- 910 9-- 7 9 7--------------| 7------------------------------|
B| 7----------------------10------| 5------ 5-------------- 5------|
G| 7-------------------------- 7--| 4------ 4-------------- 4------|
D|-------------------- 7----------|---- 6-------------- 6----------|
A|--------------------------------|--------------------------------|
E| 7-------------- 7--------------| 0---------- 0-- 0---------- 0--|
http://classicalguitartablature.blogspot.com/
E|--------------------------------|-------------- 9----------------|
B|-------- 5------------ 5------ 9|-------------- 9----12------ 9--|
G|-------- 4-------------- 4------|---- 9---------------------- 7--|
D|---- 6------------ 6------------|-- 9-- 9---------------- 9-- 9--|
A|--------------------------------|--------------------------------|
E| 0---------- 0-- 0---------- 0 0|---------- 0---- 0--------------|
http://classicalguitartablature.blogspot.com/
E|--------------------------------|-------------------------- 4----|
B|---- 7--------------------------|------ 5------ 7-------------- 0|
G|---- 7------------------ 7------|---- 5---------------- 5--------|
D|-------- 9---------- 9----------|-- 4-------------- 4------------|
A|--------------------------------| 0-------- 0-- 0----------------|
E| 7---------- 7-- 7---------- 7--|------------------------------ 0|
http://classicalguitartablature.blogspot.com/
E|--------------------------------|-------------------------- 0-- 2|
B|--------------------------------|-------------- 0---- 1----------|
G|---- 1------------------ 1------|-- 2-- 2------ 2----------------|
D|-- 2-- 2------------ 2----------|---- 2--------------------------|
A|--------------------------------| 0---------- 0------------------|
E|------------ 0-- 0---------- 0--|---------------- 3--------------|
http://classicalguitartablature.blogspot.com/
E|---------------- 5---- 3---- 5--| 7------------------------------|
B| 1------ 1------ 3---- 3---- 3--| 8------ 8------------ 8--------|
G|---- 2---------- 3---- 3---- 3--|------ 8-------------- 8--------|
D|---- 2---------- 3--------------|---- 7------------ 7------------|
A|---------------- 3--------------|---------------- 0---------- 0--|
E| 2---------- 2------------------| 7---------- 7------------------|
http://classicalguitartablature.blogspot.com/
E|--------------------------------|-------------- 9----------------|
B|-------- 5---------- 1------ 3 9|-------------- 9----12------ 9--|
G|------ 4------------ 2------ 2--|---- 9---------------------- 7--|
D|---- 2-------------- 2------ 1--|-- 9-- 9---------------- 9-- 9--|
A|--------------------------------|--------------------------------|
E| 3---------- 3-- 2------ 1---- 0|---------- 0---- 0--------------|
http://classicalguitartablature.blogspot.com/
E|--------------------------------|-------------------------- 4----|
B|---- 7--------------------------|------ 5------ 7-------------- 0|
G|---- 7------------------ 7------|---- 5---------------- 5--------|
D|-------- 9---------- 9----------|-- 4-------------- 4------------|
A|--------------------------------| 0-------- 0-- 0----------------|
E| 7---------- 7-- 7---------- 7--|------------------------------ 0|
http://classicalguitartablature.blogspot.com/
E|--------------------------------|-------------------------- 0----|
B|--------------------------------|-------------- 0---- 1----------|
G|---- 1------------------ 1------|-- 2-- 2------ 2----------------|
D|-- 2-- 2------------ 2----------|---- 2--------------------------|
A|--------------------------------| 0---------- 0------------------|
E|------------ 0-- 0---------- 0--|---------------- 3--------------|
http://classicalguitartablature.blogspot.com/
E| 2-------------- 5---- 2---- 3--| 0------------------------------|
B| 1---- 1-- 0---- 4---- 4---- 4--| 0---- 0------------------------|
G|---- 2---- 2-------- 2------ 2--|------ 1------ 2---------- 0----|
D|-- 2------ 2--------------------|---- 2-------------- 4----------|
A|---------------- 2---------- 2--|--------------------------------|
E| 2---------- 2------------------| 0-------- 0---- 0--------------|
http://classicalguitartablature.blogspot.com/
E|-------- 0----------------------|------ 8------10---- 8----------|
B|------ 2------------------------|------10------10------10----10--|
G|---- 0------------------ 0------|---- 9 9------ 9---- 9------ 9--|
D| 2------------------ 2----------|--10------------------------10--|
A|--------------------------------| 0---------- 0 0----------------|
E| 0-------- 0---- 0---------- 0--|--------------------------------|
http://classicalguitartablature.blogspot.com/
E| 7------ 7----------------------|------ 7------ 5---------- 5-- 7|
B| 8------ 8-------------- 8------|---- 6-------------- 6----------|
G| 8---------------------- 8------|---- 5--------------------------|
D|---- 7-------------- 7----------|-- 7----------------------------|
A|--------------------------------| 8-------- 8-- 8----------------|
E| 7---------- 7-- 7---------- 7--|--------------------------------|
http://classicalguitartablature.blogspot.com/
E|--------------------------------|------ 8------10---- 8----------|
B| 8------ 8---------- 8---- 8----|------10------10------10----10--|
G| 8---- 8------------ 8---- 7----|---- 9 9------ 9---- 9------ 9--|
D|---- 7-------------- 7------ 6--|--10------------------------10--|
A|--------------------------------| 0---------- 0 0----------------|
E| 7---------- 7-- 7------ 6------|--------------------------------|
http://classicalguitartablature.blogspot.com/
E| 7------ 7---------------- 7----| 8------ 8------------ 8--------|
B| 8------ 8-------------- 7------|10------10------------10--------|
G| 8------------------------------|---- 9---------------- 9--------|
D|---- 7------------ 7------------|--------------------10----------|
A|--------------------------------| 9---------- 9------------------|
E| 7---------- 7-- 7--------------|---------------- 8---------- 8--|
http://classicalguitartablature.blogspot.com/
E| 7------------------------------|-------------- 9----------------|
B| 8---- 8-------------------- 8 9|-------------- 9----12------ 9--|
G|------ 8---------------- 8------|---- 9---------------------- 7--|
D|---- 7-------------- 7----------|-- 9-- 9---------------- 9-- 9--|
A|---------------- 8--------------|--------------------------------|
E| 7---------- 7---------------- 0|---------- 0---- 0--------------|
http://classicalguitartablature.blogspot.com/
E|--------------------------------|-------------------------- 4----|
B|---- 7--------------------------|------ 5------ 7-------------- 0|
G|---- 7------------------ 7------|---- 5---------------- 5--------|
D|-------- 9---------- 9----------|-- 4-------------- 4------------|
A|--------------------------------| 0-------- 0-- 0----------------|
E| 7---------- 7-- 7---------- 7--|------------------------------ 0|
http://classicalguitartablature.blogspot.com/
E|--------------------------------|------------------------------ 0|
B|--------------------------------|------------------------ 1---- 1|
G|---- 1------------------ 1------|-------- 2-------- 4---- 2---- 2|
D|-- 2-- 2------------ 2----------|---- 2------ 2---- 3---- 2------|
A|--------------------------------| 0------------------------------|
E|------------ 0-- 0---------- 0--|------------------ 4---- 3---- 2|
http://classicalguitartablature.blogspot.com/
E|------ 2------------------------|------------------------------ 5|
B|------ 1------------------------|------------------------------ 7|
G|---- 2--------------------------|------ 4---------------------- 5|
D|--------------------------------|---- 7--------------------------|
A|--------------------------------|---- 7---------------------- 6--|
E|---- 1--------------------------|--------------------------------|
http://classicalguitartablature.blogspot.com/
E|--------------------------------|-- 3----------------------------|
B|-------- 7----------------------| 3------------------------------|
G|-------- 4-------------------- 3|------------------------------ 9|
D|-------- 5-------------------- 2|--------------------------------|
A|------ 4-------------------- 3--|--------------------------------|
E|--------------------------------|------------------------------ 0|
http://classicalguitartablature.blogspot.com/
E|--1212--11 911 9--------------10|-- 910-- 9 7 9 7----------------|
B|----------------------12------ 7|-------------- 7------10--------|
G|---------------------- 9---- 9--| 7-------------------------- 7--|
D|------------------ 9------------|-------------------- 7----------|
A|--------------------------------|--------------------------------|
E|---------------- 0------------ 7|---------------- 7--------------|
http://classicalguitartablature.blogspot.com/
E|12--111211 911-- 9--------------|10-- 910 9-- 7 9 7--------------|
B| 9-------------- 9------12------| 7----------------------10------|
G| 9-------------------------- 9--| 7-------------------------- 7--|
D|-------------------- 9----------|-------------------- 7----------|
A|--------------------------------|--------------------------------|
E| 0-------------- 0--------------| 7-------------- 7------------ 0|
http://classicalguitartablature.blogspot.com/
E|--12--111211---- 911-- 9------ 9|--------------------------------|
B|--------------------------12----|--12-------------- 9------------|
G| 9------------------------------|-------- 9-------- 9------------|
D|--------------------------------|---------------- 9--------------|
A|--------------------------------|--------------------------------|
E|--------------------------------|---------------- 0--------------|
http://classicalguitartablature.blogspot.com/
E|--------------------------------|--------------------------------|
B|--------------------------------|--------------------------------|
G|--------------------------------|--------------------------------|
D|--------------------------------|--------------------------------|
A|--------------------------------|--------------------------------|
E|--------------------------------|--------------------------------|
http://classicalguitartablature.blogspot.com/

0 ความคิดเห็น:

แสดงความคิดเห็น