To celebrate the anniversary, I am giving you (finally...) : iPhone LickByNeck !!!!!!

You're So Vain (BASIC)

Carly Simon's tune fingerstyle chord melody guitar BASIC arrangement played in the key of Am.

You're So Vain-Carly Simon-BASIC ARRANGEMENT played in the key of Am.
http://classicalguitartablature.blogspot.com/
E|----------------|----------------|
B|----------------|----------------|
G|----------------|----------------|
D|----------------|----------------|
A| 0--12-- 01212--| 0--------------|
E|----------------|----------------|
http://classicalguitartablature.blogspot.com/
E|----------------|----------------|
B|----------------|----------------|
G|----------------|----------------|
D|----------------|----------------|
A| 0--1212 0--12--| 0--------------|
E|----------------|----------------|
http://classicalguitartablature.blogspot.com/
http://classicalguitartablature.blogspot.com/
E|----------------|----------------|
B| 1------ 1------|---- 1------ 1--|
G| 2------ 2------|---- 2------ 2--|
D| 2------ 2------|---- 2------ 2--|
A| 0--------------|---- 0------ 0--|
E|----------------|----------------|
http://classicalguitartablature.blogspot.com/
E|----------------|----------------|
B|---- 1------ 1--|---- 1------ 1--|
G|---- 2------ 2--|---- 2------ 2--|
D|---- 2------ 2--|---- 2------ 2--|
A|------------ 0--|----------------|
E|----------------|----------------|
http://classicalguitartablature.blogspot.com/
E|----------------|----------------|
B| 1------ 1------|---- 1------ 1--|
G| 2------ 2------|---- 2----------|
D| 3------ 3------|---- 3------ 2--|
A|----------------|------------ 0--|
E| 1--------------|---- 1----------|
http://classicalguitartablature.blogspot.com/
E|----------------|----------------|
B|-- 1-------- 1--|----------------|
G|---- 2------ 2--|---- 2-- 2------|
D|---- 2------ 2--|----------------|
A|------------ 0--|----------------|
E|----------------|----------------|
http://classicalguitartablature.blogspot.com/
E| 0--------------|------------ 0--|
B| 1------ 3------| 1--------------|
G| 2------ 2------| 2-- 2----------|
D|---- 2------ 2--|---- 2----------|
A| 0--------------| 0--------------|
E|----------------|----------------|
http://classicalguitartablature.blogspot.com/
E|----------------|----------------|
B|---- 3------ 1--|----------------|
G|---- 2------ 2--|---- 2------ 2--|
D|---- 2-- 2------|----------------|
A| 0--------------| 0--------------|
E|----------------|----------------|
http://classicalguitartablature.blogspot.com/
E| 5-- 5------ 3--|---- 5------ 0--|
B| 1-- 1------ 1--|---- 1----------|
G| 2-- 2------ 2--|---- 2----------|
D|----------------|----------------|
A|----------------|----------------|
E| 1---------- 1--|----------------|
http://classicalguitartablature.blogspot.com/
E|----------------|----------------|
B|---- 1------ 1--|----------------|
G|---- 2----------|---- 2-- 2-- 2--|
D|---- 2------ 2--|----------------|
A| 0---------- 0--|----------------|
E|----------------|----------------|
http://classicalguitartablature.blogspot.com/
E| 0--------------|------------ 0--|
B| 1------ 3------| 1--------------|
G| 2------ 2------| 2-- 2----------|
D|---- 2------ 2--|---- 2----------|
A| 0--------------| 0--------------|
E|----------------|----------------|
http://classicalguitartablature.blogspot.com/
E|----------------|----------------|
B|---- 3------ 1--|----------------|
G|---- 2------ 2--|---- 2------ 2--|
D|---- 2-- 2------|----------------|
A| 0--------------| 0--------------|
E|----------------|----------------|
http://classicalguitartablature.blogspot.com/
E| 5-- 5------ 3--|------------ 0--|
B| 1-- 1----------|---- 1----------|
G| 2------ 2------|----------------|
D|----------------|----------------|
A|----------------|----------------|
E| 1--------------| 1--------------|
http://classicalguitartablature.blogspot.com/
E|----------------|----------------|
B|---- 1------ 1--|----------------|
G|---- 2----------|---- 2-- 2-- 2--|
D|---- 2------ 2--|----------------|
A| 0---------- 0--|----------------|
E|----------------|----------------|
http://classicalguitartablature.blogspot.com/
E| 5------ 5------| 3------ 3---- 3|
B|-- 1---- 1------| 0------ 0------|
G|---- 2------ 2 0|---- 0------ 0--|
D|----------------|----------------|
A|----------------|----------------|
E| 1--------------| 3--------------|
http://classicalguitartablature.blogspot.com/
E|----------------|----------------|
B| 0--------------|----------------|
G| 0-- 0------ 2--|---- 2-- 2-- 2--|
D|-------- 0-- 2--|----------------|
A|----------------| 0--------------|
E| 0--------------|----------------|
http://classicalguitartablature.blogspot.com/
E| 5-- 5------ 3--|------------ 0--|
B| 1-- 1----------|---- 1----------|
G| 2------ 2------|----------------|
D|----------------|----------------|
A|----------------|----------------|
E| 1--------------| 1--------------|
http://classicalguitartablature.blogspot.com/
E|---------- 0----|-- 1-- 0--------|
B|----------------|------------ 3--|
G|-------- 0------|----------------|
D|---- 2----------|----------------|
A| 3--------------| 3--------------|
E|----------------|----------------|
http://classicalguitartablature.blogspot.com/
E|---- 0----------|----------------|
B|-------- 3-- 1--|---- 1-- 1------|
G|----------------|---- 2------ 2--|
D|----------------|---- 3----------|
A|----------------|----------------|
E| 3--------------| 1--------------|
http://classicalguitartablature.blogspot.com/
E|----------------|----------------|
B| 1-- 3------ 1--|---- 1-- 1---- 1|
G|------------ 2--|------------ 2--|
D|-------- 3------|----------------|
A|----------------|----------------|
E| 1--------------| 1------------ 1|
http://classicalguitartablature.blogspot.com/
E|----------------|----------------|
B|-- 3---- 1------|----------------|
G|----------------|-------- 0------|
D|----------------|---- 2------ 2--|
A|----------------| 3--------------|
E|----------------|----------------|
http://classicalguitartablature.blogspot.com/
E|----------------|----------------|
B|----------------|----------------|
G|---- 2------ 0--|-------- 0------|
D|----------------|---- 2------ 2--|
A| 3--------------| 3--------------|
E|----------------|----------------|
http://classicalguitartablature.blogspot.com/
E|----------------|----------------|
B|----------------|----------------|
G|---- 0------ 0--|---- 5-- 5---- 5|
D|----------------| 7---------- 7--|
A| 3--------------| 5------------ 5|
E|----------------|----------------|
http://classicalguitartablature.blogspot.com/
E|----------------|----------------|
B|----------------|------------ 1--|
G|-------- 5-- 2--|---- 0------ 0--|
D|---- 7------ 2--|-------- 2 0----|
A|----------------| 3--------------|
E|----------------|----------------|
http://classicalguitartablature.blogspot.com/
E|------------ 0--|----------------|
B|---- 3----------|------------ 1--|
G|---- 0----------|-------- 2------|
D|-------- 0------|---- 2----------|
A| 2--------------| 0--------------|
E|----------------|----------------|
http://classicalguitartablature.blogspot.com/
E|---- 0------ 0--| 0-- 3-- 3-- 0--|
B|---- 1------ 1--| 1------ 1---- 1|
G|----------------| 2-- 2-- 2-- 2--|
D|----------------|----------------|
A| 0--------------|----------------|
E|----------------| 1--------------|
http://classicalguitartablature.blogspot.com/
E| 3-- 0-- 3-- 5--|---- 3------ 5--|
B| 1-- 1-- 1------|---- 0----------|
G| 2-- 2-- 2------|-------- 0------|
D|----------------|----------------|
A|----------------|----------------|
E| 1--------------| 3--------------|
http://classicalguitartablature.blogspot.com/
E|---- 3------ 5--|---- 3----------|
B|---- 0------ 0--|---- 0------ 0--|
G|---- 0-- 0------|-------- 0------|
D|----------------|----------------|
A|----------------|----------------|
E| 3--------------| 3--------------|
http://classicalguitartablature.blogspot.com/
E|---- 3----------|----------------|
B|------------ 0--|----------------|
G|-------- 0------|-------- 0------|
D|----------------|---- 2------ 2--|
A|----------------| 3--------------|
E| 3--------------|----------------|
http://classicalguitartablature.blogspot.com/
E|----------------|----------------|
B|----------------|----------------|
G|---- 2------ 0--|-------- 0------|
D|----------------|---- 2------ 2--|
A| 3--------------| 3--------------|
E|----------------|----------------|
http://classicalguitartablature.blogspot.com/
E|----------------|----------------|
B|----------------|----------------|
G|---- 0------ 0--|---- 5-- 5---- 5|
D|----------------| 7---------- 7--|
A| 3--------------| 5------------ 5|
E|----------------|----------------|
http://classicalguitartablature.blogspot.com/
E|----------------|----------------|
B|----------------|------------ 1--|
G|-------- 5-- 2--|---- 0------ 0--|
D|---- 7------ 2--|-------- 2 0----|
A|----------------| 3--------------|
E|----------------|----------------|
http://classicalguitartablature.blogspot.com/
E|------------ 0--|----------------|
B|---- 3----------|------------ 1--|
G|---- 0----------|-------- 2------|
D|-------- 0------|---- 2----------|
A| 2--------------| 0--------------|
E|----------------|----------------|
http://classicalguitartablature.blogspot.com/
E|---- 0------ 0--| 0-- 3-- 3-- 0--|
B|---- 1------ 1--| 1------ 1---- 1|
G|----------------| 2-- 2-- 2-- 2--|
D|----------------|----------------|
A| 0--------------|----------------|
E|----------------| 1--------------|
http://classicalguitartablature.blogspot.com/
E| 3-- 0-- 3-- 5--|---- 3------ 5--|
B| 1-- 1-- 1------|---- 0----------|
G| 2-- 2-- 2------|-------- 0------|
D|----------------|----------------|
A|----------------|----------------|
E| 1--------------| 3--------------|
http://classicalguitartablature.blogspot.com/
E|---- 3------ 5--|---- 3----------|
B|---- 0------ 0--|---- 0------ 0--|
G|---- 0-- 0------|-------- 0------|
D|----------------|----------------|
A|----------------|----------------|
E| 3--------------| 3--------------|
http://classicalguitartablature.blogspot.com/
E|---- 3----------|----------------|
B|------------ 0--|----------------|
G|-------- 0------|----------------|
D|----------------|----------------|
A|----------------| 0--1212 0--12--|
E| 3--------------|----------------|
http://classicalguitartablature.blogspot.com/
E|----------------|----------------|
B|----------------|----------------|
G|----------------|----------------|
D|----------------|----------------|
A| 0--------------| 0--1212 0--12--|
E|----------------|----------------|
http://classicalguitartablature.blogspot.com/
E|----------------|----------------|
B|----------------|----------------|
G|----------------|----------------|
D|----------------|----------------|
A| 0--------------|----------------|
E|----------------|----------------|
http://classicalguitartablature.blogspot.com/

0 ความคิดเห็น:

แสดงความคิดเห็น