To celebrate the anniversary, I am giving you (finally...) : iPhone LickByNeck !!!!!!
0 com

Kiss Me Goodbye (BASIC)

Petula Clark's tune fingerstyle chord melody guitar BASIC arrangement played in the key of D.

Kiss Me Goodbye-Petula Clark-BASIC ARRANGEMENT played In the key of D.
http://classicalguitartablature.blogspot.com/
E|------------------------ 5------|-------- 2---- 0----------------|
B|---------------- 5--------------|---------- 3------------ 0------|
G|-------- 7-- 7------------------|--------------------------------|
D|---- 7--------------------------|---- 4--------------------------|
A| 5------------------------------| 5------------------------------|
E|--------------------------------|--------------------------------|
http://classicalguitartablature.blogspot.com/
E|------------------------ 5------|--------------------------------|
B|---------------- 5--------------|---------------- 0------ 0------|
G|-------- 7-- 7------------------|-------- 2-- 2------------------|
D|---- 7--------------------------|---- 4---------------------- 4--|
A| 5------------------------------| 5------------------------------|
E|--------------------------------|--------------------------------|
http://classicalguitartablature.blogspot.com/
http://classicalguitartablature.blogspot.com/
E|--------------------------------|-------- 2-------------- 5------|
B|---------------- 0---- 0--------|-------- 3------ 5--------------|
G|-------- 2-- 2------------------|------------ 2-- 2--------------|
D|---- 4-------------------- 4----|---- 4-------------- 2------ 2--|
A| 5------------------------------| 5-------------- 4--------------|
E|--------------------------------|--------------------------------|
http://classicalguitartablature.blogspot.com/
E|-------- 3 2--------------------|-------- 3-- 2------------------|
B|-------- 0------ 3--------------|-------- 3-- 3-- 3--------------|
G|---- 0---------- 2------ 2------|---------------- 2------ 2------|
D|-------------- 4---- 4------ 4--|---- 0-------------- 0------ 0--|
A| 2------------ 0----------------|--------------------------------|
E|--------------------------------| 3------------ 2----------------|
http://classicalguitartablature.blogspot.com/
E|---------- 0-- 0----------------|-------- 2-------------- 5------|
B| 3-------------------------- 0--|-------- 3------ 5--------------|
G|-------- 0-------------- 0------|------------ 2-- 2--------------|
D|---- 0-------------- 0----------|---- 4-------------- 2------ 2--|
A|---------------- 0--------------| 5-------------- 4--------------|
E| 0------------------------------|--------------------------------|
http://classicalguitartablature.blogspot.com/
E|-------- 3 2--------------------|-------- 3-- 2------------------|
B|-------- 0------ 3--------------|-------- 3-- 3-- 3--------------|
G|---- 0---------- 2------ 2------|---------------- 2------ 2------|
D|-------------- 4---- 4------ 4--|---- 0-------------- 0------ 0--|
A| 2------------ 0----------------|--------------------------------|
E|--------------------------------| 3------------ 2----------------|
http://classicalguitartablature.blogspot.com/
E|-------------- 0------------ 0--|--------------------------------|
B| 3---------- 3------------------| 3---------- 3-- 1---------- 1--|
G|-------- 0------------ 0--------|-------- 2-------------- 0------|
D|---- 0-------------- 0----------|---- 4-------------- 4----------|
A|---------------- 0--------------| 5-------------- 5--------------|
E| 0------------------------------|--------------------------------|
http://classicalguitartablature.blogspot.com/
E|--------------------------------| 3---------- 3 5-------- 7------|
B| 0---------- 0---------- 3------|--------------------------------|
G|-------- 2------ 2--------------|-------- 0----------------------|
D|---- 4-------------- 4------ 4--|---- 0-------------- 0------ 0--|
A| 5-------------- 5--------------|--------------------------------|
E|--------------------------------| 3-------------- 3--------------|
http://classicalguitartablature.blogspot.com/
E| 5-------- 5---------- 3-- 2----| 0-------- 0-- 2-------- 3------|
B| 3------ 3------------ 3-- 3----| 1-------------- 1--------------|
G|---- 2------------ 2------------|-------- 0-------- 0-------- 0--|
D|--------------------------------|---- 2--------------------------|
A|--------------------------------|--------------------------------|
E| 3-------------- 3--------------| 3-------------- 3--------------|
http://classicalguitartablature.blogspot.com/
E| 2---------------------- 0------|---------------------------- 0--|
B| 3---------- 3-------------- 3--| 1---------- 1------ 3----------|
G|-------- 2----------------------| 0------ 0---------- 0----------|
D|---- 0-------------- 0----------|---- 2-------------- 2-- 2------|
A|--------------------------------|--------------------------------|
E| 3-------------- 3--------------| 3-------------- 3--------------|
http://classicalguitartablature.blogspot.com/
E|--------------------------------|---------------------------- 0--|
B| 3---------- 3------ 1------ 0--|------------------------ 3------|
G|-------- 0-------- 0------------| 2------ 2-------------- 2------|
D|---- 0------------------ 0------|---- 4-------------- 4----------|
A|--------------------------------| 5---------- 0-- 5--------------|
E| 3-------------- 3--------------|--------------------------------|
http://classicalguitartablature.blogspot.com/
E| 2------------------------------| 5-------------- 7------ 8------|
B| 3---------- 3------------------| 5------ 5------ 5--------------|
G|-------- 2------ 2------ 2------|--------------------------------|
D|---- 4-------------- 4------ 4--|---- 5-------------- 5------ 5--|
A| 5---------- 0-- 5--------------| 0-------------- 0--------------|
E|--------------------------------|------------ 0------------------|
http://classicalguitartablature.blogspot.com/
E| 7---------------------- 5-- 3--| 2-------------- 3------ 5------|
B|-------- 5-------------- 5-- 5--| 3------ 3------ 3--------------|
G|---- 5-------------- 5-- 5-- 5--|-------------------- 2------ 2--|
D|--------------------------------|---- 4--------------------------|
A|--------------------------------|--------------------------------|
E| 3---------- 3-- 3--------------| 2---------- 2-- 2--------------|
http://classicalguitartablature.blogspot.com/
E| 3---------------------- 2-- 0--|--------------------------------|
B| 1------------------------------| 3-------------------------- 3--|
G|-------- 0----------------------| 2------ 2-------------- 2------|
D|---- 2-------------- 2----------|---- 4-------------- 4----------|
A|--------------------------------| 5---------- 0-- 5--------------|
E| 3---------- 3-- 3--------------|--------------------------------|
http://classicalguitartablature.blogspot.com/
E| 0------------------------------|-------------- 0-------- 0------|
B| 1------ 3----------------------| 0---- 0------------------------|
G|-------- 0------ 0------ 2------|---- 0--------------------------|
D|---- 2------ 2-- 4-- 4------ 4--|-- 0---------------- 0----------|
A| 0-------------- 5--------------|--------------------------------|
E|--------------------------------| 3---------- 3 3------------ 3--|
http://classicalguitartablature.blogspot.com/
E| 2-------------- 0------ 0------| 3---------- 3 5-------- 7------|
B|-------- 0------------------ 3--|--------------------------------|
G|------ 0------------------------|-------- 0----------------------|
D|---- 0-------------- 0----------|---- 0-------------- 0------ 0--|
A|--------------------------------|--------------------------------|
E| 3-------- 3---- 3---------- 3--| 3-------------- 3--------------|
http://classicalguitartablature.blogspot.com/
E| 5-------- 5---------- 3-- 2----| 0-------- 0-- 2-------- 3------|
B| 3------ 3------------ 3-- 3----| 1-------------- 1--------------|
G|---- 2------------ 2------------|-------- 0-------- 0-------- 0--|
D|--------------------------------|---- 2--------------------------|
A|--------------------------------|--------------------------------|
E| 3-------------- 3--------------| 3-------------- 3--------------|
http://classicalguitartablature.blogspot.com/
E| 2---------------------- 0------|---------------------------- 0--|
B| 3---------- 3-------------- 3--| 1---------- 1------ 3----------|
G|-------- 2----------------------| 0------ 0---------- 0----------|
D|---- 0-------------- 0----------|---- 2-------------- 2-- 2------|
A|--------------------------------|--------------------------------|
E| 3-------------- 3--------------| 3-------------- 3--------------|
http://classicalguitartablature.blogspot.com/
E|--------------------------------| 0------------------------------|
B| 3---------- 3------ 1------ 0--|-------- 1------ 0--------------|
G|-------- 0-------- 0------------|------ 0-------- 2------ 2------|
D|---- 0------------------ 0------|---- 2-------------- 2------ 2--|
A|--------------------------------| 3---------- 3-- 3--------------|
E| 3-------------- 3--------------|--------------------------------|
http://classicalguitartablature.blogspot.com/
E|--------------------------------|---------------- 0---- 2---- 3--|
B| 0------ 0----------------------|-------- 0------ 0---- 0---- 0--|
G| 0---- 0-------- 2------ 2------|------ 0---------- 0-- 0---- 0--|
D|---- 2-------------- 2------ 2--|---- 2--------------------------|
A| 3---------- 3-- 3--------------| 3---------- 3-- 3--------------|
E|--------------------------------|--------------------------------|
http://classicalguitartablature.blogspot.com/
E| 5------ 5----------------------|--------------------------------|
B|------ 5---------------- 5------| 3------ 3---- 3---- 5---- 7----|
G|-- 4---------------- 4------ 4--| 4---- 4------ 4---- 4---- 5----|
D|--------------------------------|---- 5-------- 5---- 5---- 7----|
A| 4---------- 4-- 4--------------| 5-------- 5-- 5------ 4---- 6--|
E|--------------------------------|--------------------------------|
http://classicalguitartablature.blogspot.com/
E| 3------------------------ 0----| 3------ 2-- 0------------------|
B|------ 0------------------------| 0------------------ 0---- 3----|
G|---- 0---------------- 0--------|---- 0-------------- 0---- 0----|
D|-- 0---------------- 0----------|-- 2---------------- 2---- 0----|
A|---------------- 5--------------| 3-------------- 3-- 3---- 2----|
E| 0-------- 0--------------------|--------------------------------|
http://classicalguitartablature.blogspot.com/
E|---------------- 5---- 3---- 2--| 3-------------- 0------ 0------|
B| 1------ 1------ 5---- 1---- 1--| 3------ 3-- 3------------------|
G| 0---- 0-------- 5---- 0---- 2--|------ 0------------------------|
D| 2-- 2---------------- 2--------|---- 0-------------- 0------ 0--|
A| 0---------- 0-- 5--------------|--------------------------------|
E|---------------------- 0---- 2--| 3-------------- 3--------------|
http://classicalguitartablature.blogspot.com/
E|-------------- 0------ 0---- 0--| 3------ 2-- 0------------------|
B|-------- 3-- 3------------------| 0------------------ 0---- 3----|
G|---- 0--------------------------|---- 0-------------- 0---- 0----|
D|-- 0---------------- 0----------|-- 2---------------- 2---- 0----|
A|--------------------------------| 3-------------- 3-- 3---- 2----|
E| 3-------------- 3--------------|--------------------------------|
http://classicalguitartablature.blogspot.com/
E|---------------- 5---- 3---- 2--| 3-------------- 5------ 7------|
B| 1------ 1------ 5---- 1---- 1--|-------- 0----------------------|
G| 0---- 0-------- 5---- 0---- 2--|------ 0------------------------|
D| 2-- 2---------------- 2--------|---- 0-------------- 0------ 0--|
A| 0---------- 0-- 5--------------|--------------------------------|
E|---------------------- 0---- 2--| 3---------- 3-- 3--------------|
http://classicalguitartablature.blogspot.com/
E| 5------ 5-------------- 3-- 2--| 0---------- 0---------------- 8|
B| 3-- 3------------------ 3-- 3--| 0---------------- 8----------10|
G|-- 2---------------- 2-- 2------|-------- 0-------- 5-------- 8--|
D|--------------------------------|---- 2------------ 7------------|
A|--------------------------------| 3-------------- 6---------- 9--|
E| 3---------- 3-- 3--------------|--------------------------------|
http://classicalguitartablature.blogspot.com/
E|--------------10----------------|--------------------------------|
B|------------10------------------|--------------------------------|
G|---------- 9--------------------|--------------------------------|
D|---------- 9--------------------|--------------------------------|
A|--------10----------------------|--------------------------------|
E|--------------------------------|--------------------------------|
http://classicalguitartablature.blogspot.com/
0 com

Scientist (BASIC)

Coldplay's tune fingerstyle chord melody guitar BASIC arrangement played in the key of Em.

Scientist-Coldplay-BASIC ARRANGEMENT played In the key of Em.
http://classicalguitartablature.blogspot.com/
E|--------------------------------|--------------------------------|
B|------------ 0-------------- 3--|---- 0---------------------- 3--|
G|-------- 0------ 0-- 2-- 0------|---- 0------ 0-- 0-- 2-- 0------|
D|---- 2--------------------------|---- 2-- 2----------------------|
A|--------------------------------| 3-------------- 3--------------|
E| 0-------------- 0--------------|--------------------------------|
http://classicalguitartablature.blogspot.com/
E|--------------------------------|--------------------------------|
B|---- 0---------------------- 0--|-- 0------ 0---- 0--------------|
G|------------ 0-- 0-- 2-- 0------|------------------------ 2-- 0--|
D|-------- 0----------------------|------ 0------------ 0----------|
A|--------------------------------|--------------------------------|
E| 3-------------- 3--------------| 3-------------- 3------ 2------|
http://classicalguitartablature.blogspot.com/
http://classicalguitartablature.blogspot.com/
E|--------------------------------|--------------------------------|
B|------------ 0-------------- 3--|---- 0---------------------- 3--|
G|-------- 0------ 0-- 2-- 0------|---- 0------ 0-- 0-- 2-- 0------|
D|---- 2--------------------------|---- 2-- 2----------------------|
A|--------------------------------| 3-------------- 3--------------|
E| 0-------------- 0--------------|--------------------------------|
http://classicalguitartablature.blogspot.com/
E|--------------------------------|--------------------------------|
B|---- 0---------------------- 0--|-- 0------ 0---- 0--------------|
G|------------ 0-- 0-- 2-- 0------|------------------------ 2-- 0--|
D|-------- 0----------------------|------ 0------------ 0----------|
A|--------------------------------|--------------------------------|
E| 3-------------- 3--------------| 3-------------- 3------ 2------|
http://classicalguitartablature.blogspot.com/
E|--------------------------------|--------------------------------|
B|------------ 0-------------- 3--|---- 0---------------------- 3--|
G|-------- 0------ 0-- 2-- 0------|---- 0------ 0-- 0-- 2-- 0------|
D|---- 2--------------------------|---- 2-- 2----------------------|
A|--------------------------------| 3-------------- 3--------------|
E| 0-------------- 0--------------|--------------------------------|
http://classicalguitartablature.blogspot.com/
E|--------------------------------|--------------------------------|
B|---- 0---------------------- 0--|-- 0------ 0---- 0--------------|
G|------------ 0-- 0-- 2-- 0------|------------------------ 2-- 0--|
D|-------- 0----------------------|------ 0------------ 0----------|
A|--------------------------------|--------------------------------|
E| 3-------------- 3--------------| 3-------------- 3------ 2------|
http://classicalguitartablature.blogspot.com/
E|--------------------------------|--------------------------------|
B|------------ 0-------------- 3--|---- 0---------------------- 3--|
G|-------- 0------ 0-- 2-- 0------|---- 0------ 0-- 0-- 2-- 0------|
D|---- 2--------------------------|---- 2-- 2----------------------|
A|--------------------------------| 3-------------- 3--------------|
E| 0-------------- 0--------------|--------------------------------|
http://classicalguitartablature.blogspot.com/
E|--------------------------------|--------------------------------|
B|---- 0---------------------- 0--|-- 0------ 0---- 0--------------|
G|------------ 0-- 0-- 2-- 0------|------------------------ 2-- 0--|
D|-------- 0----------------------|------ 0------------ 0----------|
A|--------------------------------|--------------------------------|
E| 3-------------- 3--------------| 3-------------- 3------ 2------|
http://classicalguitartablature.blogspot.com/
E|------------ 3------ 0------ 3--|---- 0------ 3------ 0----------|
B|------------ 1------ 1-- 3-- 1--|---- 1-- 3-------- 1-------- 3--|
G| 0---------- 0------ 0-- 0-- 0--|-------- 0-- 0------ 0---- 0----|
D| 2---------------------- 2------|-------- 2---------------- 2----|
A| 3-- 3-- 3-- 3-- 3-- 3-- 3-- 3--| 3-- 3-- 3-- 3-- 3-- 3-- 3-- 3--|
E|--------------------------------|--------------------------------|
http://classicalguitartablature.blogspot.com/
E|--------------------------------| 0 0----------------------------|
B|---------------- 0-- 3-- 3-- 3--| 0-- 0-- 0-- 0-- 0--------------|
G| 0------ 0------ 0-- 0-- 0-- 0--| 0-- 0-- 0-- 0-- 0------ 2-- 0--|
D| 0------ 0------ 0-- 0-- 0-- 0--|---- 0-- 0-- 0-- 0---------- 0--|
A|--------------------------------|------------------------ 2-- 2--|
E| 3-- 3-- 3-- 3-- 3-- 3-- 3-- 3--| 3-- 3-- 3-- 3-- 3-- 3----------|
http://classicalguitartablature.blogspot.com/
E|------------ 3------ 0------ 3--|---- 0------ 3------ 0----------|
B|------------ 1------ 1 3--------|-------- 3-- 1------ 1---- 3----|
G| 0---------- 0------ 0-- 0-- 0--|---- 0-- 0-- 0------ 0---- 0----|
D| 2-------------------- 2--------|-------- 2------------------ 2--|
A| 3-- 3-- 3-- 3-- 3-- 3-- 3-- 3--| 3-- 3-- 3-- 3-- 3-- 3-- 3-- 3--|
E|--------------------------------|--------------------------------|
http://classicalguitartablature.blogspot.com/
E|--------------------------------| 0------------------------------|
B|---------------- 0-- 3-- 3-- 3--| 0 0---- 0-- 0-- 0--------------|
G| 0------ 0------ 0-- 0-- 0-- 0--| 0-- 0-- 0-- 0-- 0------ 2-- 0--|
D| 0------ 0------ 0-- 0-- 0-- 0--|-- 0---- 0-- 0-- 0---------- 0--|
A|--------------------------------|------------------------ 2-- 2--|
E| 3-- 3-- 3-- 3-- 3-- 3-- 3-- 3--| 3-- 3-- 3-- 3-- 3-- 3----------|
http://classicalguitartablature.blogspot.com/
E|--------------------------------|--------------------------------|
B|--------------------------------|---- 1-- 1-- 1-- 1-- 1-- 1-- 1--|
G|-------------------- 0------ 2--|---- 2-- 2 2---- 2-- 2-- 2-- 0--|
D| 4------ 4------ 4---------- 0--|---- 0-- 0-- 0-- 0-- 0-- 0-- 0--|
A| 5-- 5-- 5-- 5-- 5--------------|--------------------------------|
E|-------------------- 0------ 2--|--------------------------------|
http://classicalguitartablature.blogspot.com/
E|--------------------------------|--------------------------------|
B|---- 0--------------------------|---- 1-- 1-- 1-- 1-- 1-- 1-- 1--|
G|---- 0-- 2-- 0------------------| 0-- 0-- 0-- 0------ 0-- 0-- 0--|
D|---- 0--------------------------| 2-- 2-- 2-- 2-- 2-- 2-- 2-- 0--|
A|------------------------ 2-- 2--| 3-- 3-- 3-- 3-- 3-- 3-- 3------|
E| 3-- 3-- 3-- 3-- 3-- 3----------|--------------------------------|
http://classicalguitartablature.blogspot.com/
E|--------------------------------|--------------------------------|
B|---- 0--------------------------|--------------------------------|
G|---- 0-- 2-- 0---------------- 0|-------- 0------ 0------ 2------|
D|---- 0--------------------------| 0------ 0------ 0------ 0------|
A|------------------------ 2-- 2--|--------------------------------|
E| 3-- 3-- 3-- 3-- 3-- 3----------| 3-- 3-- 3-- 3-- 3-- 3-- 2-- 2--|
http://classicalguitartablature.blogspot.com/
E|---------------------------- 7--|--------------------------------|
B|-------------------- 3------ 8--|------ 8------ 8--10-- 8-- 3----|
G| 0------ 0------ 0---------- 9--|------ 9---------------- 9------|
D| 2------ 2------ 2--------------|--------------------------------|
A|--------------------------------|--------------------------------|
E| 0-- 0-- 0-- 0-- 0-- 0-- 0-- 0--| 8-- 8 8---- 8 8---- 8 8-- 8-- 3|
http://classicalguitartablature.blogspot.com/
E|--------------------------------|--------------------------------|
B|--------------------------------|--------------------------------|
G|------ 0------ 0------ 0------ 0|-------- 0------ 0------ 2------|
D|-------- 0---- 0-------- 0------| 0------ 0------ 0------ 0------|
A|--------------------------------|--------------------------------|
E|---- 3-- 3-- 3 3---- 3-- 3 3-- 3|---- 3-- 3-- 3-- 3-- 3-- 2-- 2--|
http://classicalguitartablature.blogspot.com/
E|---------------------------- 7--|--------------------------------|
B|-------------------- 3------ 8--|------ 8------ 8--10-- 8-- 3----|
G| 0------ 0------ 0---------- 9--|------ 9---------------- 9------|
D| 2------ 2------ 2--------------|--------------------------------|
A|--------------------------------|--------------------------------|
E| 0-- 0-- 0-- 0-- 0-- 0-- 0-- 0--| 8-- 8 8---- 8 8---- 8 8-- 8-- 3|
http://classicalguitartablature.blogspot.com/
E|--------------------------------|--------------------------------|
B|--------------------------------|--------------------------------|
G|------ 0------ 0------ 0------ 0|-------- 0------ 0------ 2------|
D|-------- 0---- 0-------- 0------| 0------ 0------ 0------ 0------|
A|--------------------------------|--------------------------------|
E|---- 3-- 3-- 3 3---- 3-- 3 3-- 3|---- 3-- 3-- 3-- 3-- 3-- 2-- 2--|
http://classicalguitartablature.blogspot.com/
E|---------------- 0---------- 7--|------------ 7------------------|
B|---------- 0-------- 3----------|------ 8-------- 8--10-- 8------|
G|-------- 0----------------------|---- 9---------------------- 9--|
D|---- 2--------------------------|--------------------------------|
A|--------------------------------|--------------------------------|
E| 0------------------------------| 8------------------------------|
http://classicalguitartablature.blogspot.com/
E|--------------------------------|--------------------------------|
B|------------------ 3------------|--------------------------------|
G|------------------ 0------------|--------------------------------|
D|---------------- 0--------------|--------------------------------|
A|--------------------------------|--------------------------------|
E|---------------- 3--------------|--------------------------------|
http://classicalguitartablature.blogspot.com/
0 com

A Lover's Concerto (BASIC)

Sarah Vaughan's tune fingerstyle chord melody guitar BASIC arrangement played in the key of G.

A Lover's Concerto-Sarah Vaughan-BASIC ARRANGEMENT played In the key of G.
http://classicalguitartablature.blogspot.com/
E|--------------------------------|--------------------------------|
B| 1---------- 1-- 3------ 0------| 0---------- 0-- 1-- 0----------|
G| 0------ 0---------- 5------ 2--| 0------ 0-------------- 2-- 0--|
D|---- 2-------- 4----------------|---- 0---------- 2--------------|
A| 0------------ 5----------------|---------------- 3--------------|
E|--------------------------------| 3------------------------------|
http://classicalguitartablature.blogspot.com/
E|--------------------------------|--------------------------------|
B|---------------- 0--------------|------------ 0-------------- 3--|
G| 2------ 2---------- 2-- 0------| 0------ 0-------------- 2------|
D|---- 2------ 2 4------------ 4--|---- 0-------------- 4----------|
A| 0------------ 5----------------|---------------- 5--------------|
E|--------------------------------| 3------------------------------|
http://classicalguitartablature.blogspot.com/
http://classicalguitartablature.blogspot.com/
E|--------------------------------|--------------------------------|
B| 3---------- 3---------- 0-- 1--| 3---------- 3------------------|
G|-------- 0------ 0-- 2----------|-------- 2-------------- 0------|
D|---- 0--------------------------|---- 0-------------- 0------ 0--|
A|--------------------------------| 2-------------- 2--------------|
E| 3-------------- 3--------------|--------------------------------|
http://classicalguitartablature.blogspot.com/
E| 0---------------------- 0-- 2--| 3------------------------------|
B| 1------ 3---------- 3----------| 3------ 3----------------------|
G| 0------ 0------ 5--------------|---------------- 0------ 0------|
D|---- 2------ 2-- 4--------------|---- 0------ 0-- 2-- 2------ 2--|
A| 3-------------- 5--------------|--------------------------------|
E|--------------------------------| 3-------------- 0--------------|
http://classicalguitartablature.blogspot.com/
E|--------------------------------|--------------------------------|
B| 1---------- 1-- 3------ 0------| 0---------- 0-- 1-- 0----------|
G| 0------ 0---------- 5------ 2--| 0------ 0-------------- 2-- 0--|
D|---- 2-------- 4----------------|---- 0---------- 2--------------|
A| 0------------ 5----------------|---------------- 3--------------|
E|--------------------------------| 3------------------------------|
http://classicalguitartablature.blogspot.com/
E|--------------------------------|---------------- 0--------------|
B|-------- 3-------------- 0------|------------ 3-- 3------ 3------|
G|---- 2------ 2-- 0-- 2------ 0--| 2------ 2------ 2--------------|
D| 4-------------- 4--------------|---- 2-------------- 4------ 4--|
A| 5-------------- 3--------------| 0-------------- 5--------------|
E|--------------------------------|--------------------------------|
http://classicalguitartablature.blogspot.com/
E|--------------------------------|--------------------------------|
B| 3---------- 3---------- 0-- 1--| 3---------- 3------------------|
G|-------- 0------ 0-- 2----------|-------- 2-------------- 0------|
D|---- 0--------------------------|---- 0-------------- 0------ 0--|
A|--------------------------------| 2-------------- 2--------------|
E| 3-------------- 3--------------|--------------------------------|
http://classicalguitartablature.blogspot.com/
E| 0---------------------- 0-- 2--| 3------------------------------|
B| 1------ 3---------- 3----------| 3------ 3----------------------|
G| 0------ 0------ 5--------------|---------------- 0------ 0------|
D|---- 2------ 2-- 4--------------|---- 0------ 0-- 2-- 2------ 2--|
A| 3-------------- 5--------------|--------------------------------|
E|--------------------------------| 3-------------- 0--------------|
http://classicalguitartablature.blogspot.com/
E|--------------------------------|--------------------------------|
B| 1---------- 1-- 3------ 0------| 0---------- 0-- 1-- 0----------|
G| 0------ 0---------- 5------ 2--| 0------ 0-------------- 2-- 0--|
D|---- 2-------- 4----------------|---- 0---------- 2--------------|
A| 0------------ 5----------------|---------------- 3--------------|
E|--------------------------------| 3------------------------------|
http://classicalguitartablature.blogspot.com/
E|--------------------------------|--------------------------------|
B|---------------- 0--------------|------------ 0-------------- 0--|
G| 2------ 2---------- 2-- 0------| 0------ 0-------------- 0------|
D|---- 2------ 2 4------------ 4--|---- 0-------------- 2----------|
A| 0------------ 5----------------|--------------------------------|
E|--------------------------------| 3-------------- 0--------------|
http://classicalguitartablature.blogspot.com/
E|--------------------------------|--------------------------------|
B| 1---------- 1-- 3------ 0------| 0---------- 0-- 1-- 0----------|
G| 0------ 0---------- 5------ 2--| 0------ 0-------------- 2-- 0--|
D|---- 2-------- 4----------------|---- 0---------- 2--------------|
A| 0------------ 5----------------|---------------- 3--------------|
E|--------------------------------| 3------------------------------|
http://classicalguitartablature.blogspot.com/
E|--------------------------------|--------------------------------|
B|---------------- 0--------------|------------ 0---------------- 3|
G| 2------ 2---------- 2-- 0------| 0------ 0---------------- 0----|
D|---- 2------ 2 4------------ 4--|---- 0---------------- 4--------|
A| 0------------ 5----------------|--------------------------------|
E|--------------------------------| 3---------------- 0------------|
http://classicalguitartablature.blogspot.com/
E|--------------------------------|--------------------------------|
B|------------------------ 3-- 1--|-- 0-------- 0------------------|
G|-- 5------------------ 2--------|-- 2-- 2---- 2---- 2------------|
D|-------- 5------ 3---- 2--------| 2-------- 1---------------- 2--|
A|--------------------------------|--------------------------------|
E|---- 5------ 4-------- 3--------| 2-------- 1---------- 0--------|
http://classicalguitartablature.blogspot.com/
E|--------------------------------|--------------------------------|
B|--------------------------------|------------------------ 0------|
G|---- 5---- 4---- 2---- 0---- 2--|------------------------ 2------|
D|-- 4---------- 5------------ 5--|---- 5---------- 5------ 0------|
A|-- 6---------- 5---------- 4----|---------- 3------------ 2------|
E|--------------------------------|--------------------------------|
http://classicalguitartablature.blogspot.com/
E|--------------------------------|--------------------------------|
B|--------------------------------|--------------------------------|
G| 2-------- 0--------------------|--------------------------------|
D| 0-------- 2-------- 4----------|--------------------------------|
A| 1-------- 0--------------------|--------------------------------|
E|-------------------- 4----------|--------------------------------|
http://classicalguitartablature.blogspot.com/
E|--------------------------------|--------------------------------|
B|--------------------------------|--------------------------------|
G|---------- 0--------------------|--------------------------------|
D|---------- 2--------------------|--------------------------------|
A|--------------------------------|--------------------------------|
E|-------- 3----------------------|--------------------------------|
http://classicalguitartablature.blogspot.com/
0 com

Bad Romance (BASIC)

Lady Gaga's tune fingerstyle chord melody guitar BASIC arrangement played in the key of Am.

Bad Romance-Lady Gaga-BASIC ARRANGEMENT played In the key of Am.
http://classicalguitartablature.blogspot.com/
E|------------------ 5-- 4--------|---- 6 5------------ 8-- 7-- 6 7|
B| 5-------- 6-- 5---------- 3----| 2---------- 5-- 4--------------|
G|---- 5--------------------------|--------------------------------|
D|-------- 7----------------------|--------------------------------|
A|--------------------------------|--------------------------------|
E|--------------------------------|--------------------------------|
http://classicalguitartablature.blogspot.com/
E|--------------------------------|--------------------------------|
B|---- 8------ 7 8 8 7 7 8 8 7 8--|--------------------------------|
G|-------- 9----------------------|------------ 5------ 7-- 6------|
D|--------------------------------| 7-- 5---------- 7---------- 5--|
A|--------------------------------|-------- 7----------------------|
E|--------------------------------|--------------------------------|
http://classicalguitartablature.blogspot.com/
http://classicalguitartablature.blogspot.com/
E|--------------------------------|--------------------------------|
B|-------------------- 6-- 5-- 4--| 5------------------------------|
G|---- 8-- 7----------------------|---- 5------ 4 5-- 4 5 5 5 4 5 5|
D| 4---------- 7-- 6--------------|-------- 7----------------------|
A|--------------------------------|--------------------------------|
E|--------------------------------|--------------------------------|
http://classicalguitartablature.blogspot.com/
E|------------------------ 0------| 1---------- 0-- 1-- 0----------|
B|---------------- 1-- 3------ 1--| 1---- 1-------- 1-- 1-- 3------|
G| 5------------------------------| 2------ 2-- 2-- 2-- 2----------|
D|--------------------------------|---- 3---------------------- 0--|
A|--------------------------------|--------------------------------|
E|--------------------------------|--------------------------------|
http://classicalguitartablature.blogspot.com/
E|--------------------------------| 0------ 0-- 0-- 0--------------|
B|---- 3-- 0------ 1------ 3------| 1------ 1-- 1-- 1-- 3------ 1--|
G| 0------ 0------ 0------ 0------| 2-- 2-- 2-- 2-- 2-- 2------ 0--|
D|------------ 0------ 0------ 0--|------------------------ 2------|
A|--------------------------------|--------------------------------|
E|--------------------------------|--------------------------------|
http://classicalguitartablature.blogspot.com/
E|------------------------ 0------| 1---------- 0-- 1-- 0----------|
B|-------- 1-- 1-- 1-- 3 1---- 1--| 1------ 1-- 1-- 1-- 1-- 3------|
G|---- 0---------- 0-- 0----------| 2------ 2-- 2-- 2-- 2 0--------|
D| 2-------------- 2-- 2----------|---- 3-- 3------------------ 0--|
A|--------------------------------|--------------------------------|
E|--------------------------------| 1------------------------------|
http://classicalguitartablature.blogspot.com/
E|--------------------------------|--------------------------------|
B|-------- 0------ 1------ 3------| 5------ 5-- 5-- 5-- 3------ 1--|
G|-------- 0------ 0------ 0------| 4------ 4-- 4-- 4-- 4----------|
D|---- 0------ 0------ 0------ 0--| 3-- 3-- 3------ 3------ 3------|
A|--------------------------------|--------------------------------|
E| 3------------------------------| 4------------------------------|
http://classicalguitartablature.blogspot.com/
E|--------------------------------|--------------------------------|
B|------------ 1---------- 1------|---------------- 5-- 5-- 6-- 5--|
G|-------- 2---------- 2----------| 2------ 2------ 5-- 5-- 5-- 5--|
D|---- 2---------- 2---------- 2--| 2------ 2------ 5-- 5-- 5-- 5--|
A| 0------------------------------|--------------------------------|
E|--------------------------------|--------------------------------|
http://classicalguitartablature.blogspot.com/
E|--------------------------------|--------------------------------|
B|---------------- 5-- 5-- 6-- 5--|---------------- 5-- 5-- 6-- 5--|
G|---- 2-- 2------ 5-- 5-- 5-- 5--| 2------ 2------ 5-- 5------ 5--|
D|---- 2-- 2------ 5-- 5-- 5-- 5--| 2------ 2------ 5-- 5-- 5-- 5--|
A|--------------------------------|--------------------------------|
E|--------------------------------|--------------------------------|
http://classicalguitartablature.blogspot.com/
E|--------------------------------|--------------------------------|
B|---- 1 1------ 1------ 1--------|---------------- 5-- 5-- 6-- 5--|
G|---------- 2------ 2------------| 2------ 2------ 5-- 5-- 5-- 5--|
D|--------------------------------| 2------ 2------ 5-- 5----------|
A|--------------------------------| 0-- 0-- 3-- 3-- 7-- 7-- 8-- 8--|
E|--------------------------------|--------------------------------|
http://classicalguitartablature.blogspot.com/
E|--------------------------------|--------------------------------|
B|---------------- 5-- 5-- 6-- 5--|---------------- 5-- 5-- 6-- 5--|
G|---- 2-- 2------ 5-- 5-- 5-- 5--| 2------ 2------ 5-- 5-- 5-- 5--|
D|---- 2-- 2------ 5-- 5----------| 2------ 2------ 5-- 5----------|
A| 0-- 0-- 3-- 3-- 7-- 7-- 8-- 8--| 0-- 0-- 3-- 3-- 7-- 7-- 8-- 8--|
E|--------------------------------|--------------------------------|
http://classicalguitartablature.blogspot.com/
E|--------------------------------|--------------------------------|
B|---- 1-- 1------ 1------ 1------|--------------------------------|
G|------------ 2------ 2----------|---- 0-- 2-- 0-- 2-- 2------ 2--|
D|--------------------------------|-------- 2-- 2-- 2-- 2------ 2--|
A|--------------------------------| 0-------------- 0--------------|
E|---- 3------ 3------ 3------ 3--|--------------------------------|
http://classicalguitartablature.blogspot.com/
E|--------------------------------|--------------------------------|
B| 1------------------------------|--------------------------------|
G| 0-- 2-- 0-- 2------ 0------ 0--|---- 2-- 2-- 0-- 2-- 0-- 2-- 0--|
D| 2---------- 3---------- 3------|---- 2-- 2-- 2-- 2-- 2-- 2-- 2--|
A| 3------------------------------| 0-------------- 0--------------|
E|---------------- 1--------------|--------------------------------|
http://classicalguitartablature.blogspot.com/
E|--------------------------------|--------------------------------|
B| 1------------------------------|------------ 1------------------|
G| 0-- 2-- 0-- 2---------- 0-- 2--| 2------ 2-------------- 2------|
D|-------------------- 2----------|---- 2-------------- 2------ 2--|
A| 3------------------------------| 0-------------- 0--------------|
E|---------------- 3--------------|--------------------------------|
http://classicalguitartablature.blogspot.com/
E| 0------------------------------|--------------------------------|
B| 1------ 1----------------------|------------ 1------------------|
G|---------------- 2------ 0-- 2--| 2------ 2-------------- 2------|
D|---- 2------ 2------ 2----------|---- 2-------------- 2------ 2--|
A| 3------------------------------| 0-------------- 0--------------|
E|---------------- 1--------------|--------------------------------|
http://classicalguitartablature.blogspot.com/
E|--------------------------------|--------------------------------|
B|--------------------------------|---- 1-- 1------ 1-- 1----------|
G|-------- 0-------------- 0------|---- 2------ 2-- 2---------- 2--|
D|---- 2------ 2------ 0----------|---- 2--------------------------|
A| 3------------------------------| 0-------------- 0--------------|
E|---------------- 3--------------|--------------------------------|
http://classicalguitartablature.blogspot.com/
E|--------------------------------|--------------------------------|
B| 1-- 1------ 1------------------|---- 1-- 1------ 1------ 1------|
G| 0------ 2---------- 0----------|---- 2------ 2------ 2------ 2--|
D| 2------ 2------------------ 3--|---- 2--------------------------|
A| 3------------------------------| 0-------------- 0--------------|
E|---------------- 1--------------|--------------------------------|
http://classicalguitartablature.blogspot.com/
E|--------------------------------|--------------------------------|
B| 1------------------------------|------------ 1------------------|
G| 0-- 2-- 0-- 2---------- 0-- 2--| 2------ 2-------------- 2------|
D|-------------------- 2----------|---- 2-------------- 2------ 2--|
A| 3------------------------------| 0-------------- 0--------------|
E|---------------- 3--------------|--------------------------------|
http://classicalguitartablature.blogspot.com/
E| 0------------------------------|--------------------------------|
B| 1------ 1----------------------|------------ 1------------------|
G|---------------- 2------ 0-- 2--| 2------ 2-------------- 2------|
D|---- 2------ 2------ 2----------|---- 2-------------- 2------ 2--|
A| 3------------------------------| 0-------------- 0--------------|
E|---------------- 1--------------|--------------------------------|
http://classicalguitartablature.blogspot.com/
E|--------------------------------|--------------------------------|
B|--------------------------------|--------------------------------|
G|-------- 0-------------- 0------|--------------------------------|
D|---- 2------ 2------ 0----------|--------------------------------|
A| 3------------------------------| 0-- 0-- 3-- 3-- 7-- 7-- 8-- 8--|
E|---------------- 3--------------|--------------------------------|
http://classicalguitartablature.blogspot.com/
E|--------------------------------|--------------------------------|
B|--------------------------------|--------------------------------|
G|--------------------------------|--------------------------------|
D|--------------------------------|--------------------------------|
A|---- 0-- 3-- 3-- 7-- 7-- 8-- 7--| 0-- 0-- 3-- 3-- 7-- 7-- 8-- 8--|
E|--------------------------------|--------------------------------|
http://classicalguitartablature.blogspot.com/
E|--------------------------------|-- 5-- 5-- 5-- 5---- 5---- 5----|
B|--------------------------------|---- 1 1---- 1 1---- 1------ 1--|
G|--------------------------------|---- 2 2---- 2-- 2-- 2------ 2--|
D|--------------------------------|--------------------------------|
A|--------------------------------|--------------------------------|
E|---- 3------ 3------ 3------ 3--| 1------ 1------ 1------ 1------|
http://classicalguitartablature.blogspot.com/
E| 3-- 3-- 3------------------ 0--|---- 0-- 0-- 0-- 3------ 0------|
B| 3-- 3------ 3------ 3-- 3-- 1--|---- 1-- 1-- 1-- 1------ 1-- 3--|
G| 0------ 0-- 0------ 0-- 0-- 2--|---- 2-- 2------ 2---------- 0--|
D|------------ 0------ 0-- 0------|---------------------------- 2--|
A|--------------------------------| 0------ 0------ 0------ 0------|
E| 3------ 3------ 3------ 3------|--------------------------------|
http://classicalguitartablature.blogspot.com/
E|---------------------- 0--------|-- 5-- 5-- 5-- 5---- 5---- 5----|
B|---- 1---------- 1-- 3 1---- 1--|---- 1 1---- 1 1---- 1------ 1--|
G|---- 0---------- 0-- 0 0---- 0--|---- 2 2---- 2-- 2-- 2------ 2--|
D|---- 2------ 2-- 2-- 2------ 2--|--------------------------------|
A| 3------ 3------ 3------ 3------|--------------------------------|
E|--------------------------------| 1------ 1------ 1------ 1------|
http://classicalguitartablature.blogspot.com/
E| 3-- 3-- 3----------------------|---------------- 4--------------|
B| 3-- 3------ 3------ 3-- 3-- 5--|---- 5-- 5-- 5-- 5------ 5-- 3--|
G| 0------ 0-- 0------ 0-- 0-- 4--|---- 4-- 4-- 4-- 4------ 4-- 2--|
D|------------ 0------ 0-- 0-- 6--|---- 6-- 6-- 6------ 6-- 6-- 2--|
A|--------------------------------|--------------------------------|
E| 3------ 3------ 3------ 3------| 4------ 4------ 4------ 4------|
http://classicalguitartablature.blogspot.com/
E|---------------------- 0--------| 1---------- 0 1---- 0----------|
B|---- 1------ 1-- 1-- 3-- 1-- 1--| 1---------- 1 1-------- 3------|
G|---- 2------ 2-- 2-- 2-- 2-- 2--|------------ 2-- 2-- 2-- 2------|
D|---- 2------ 2-- 2-- 2------ 2--|------------------------ 3------|
A| 0------ 0------ 0------ 0------|--------------------------------|
E|--------------------------------| 1------ 1------ 1------ 1------|
http://classicalguitartablature.blogspot.com/
E|--------------------------------| 0------ 0-- 0-- 0--------------|
B|-------- 0------ 1------ 3------| 1------ 1-- 1-- 1-- 3------ 1--|
G|-------- 0------ 0------ 0------| 2---------- 2-- 2-- 2------ 0--|
D|---- 0------ 0------ 0------ 0--|---- 2-------------- 2------ 2--|
A|--------------------------------| 0------ 0------ 0------ 0------|
E| 3------ 3------ 3------ 3------|--------------------------------|
http://classicalguitartablature.blogspot.com/
E|------------------------ 0------| 1---------- 0 1---- 0----------|
B|---------------- 1-- 3-- 1-- 1--| 1---------- 1 1-------- 3------|
G|---------------- 0-- 0-- 0-- 0--|------------ 2-- 2-- 2-- 2------|
D|---- 2------ 2-- 2-- 2------ 2--|------------------------ 3------|
A| 3------ 3------ 3------ 3------|--------------------------------|
E|--------------------------------| 1------ 1------ 1------ 1------|
http://classicalguitartablature.blogspot.com/
E|--------------------------------|--------------------------------|
B|-------- 0------ 1------ 3------| 5---- 5---- 3-- 5-- 3------ 1--|
G|-------- 0------ 0------ 0------| 4------ 4-- 4-- 4-- 4------ 2--|
D|---- 0------ 0------ 0------ 0--| 3------ 3-- 3-- 3-- 3------ 2--|
A|--------------------------------|--------------------------------|
E| 3------ 3------ 3------ 3------| 4------ 4------ 4------ 4------|
http://classicalguitartablature.blogspot.com/
E|--------------------------------|--------------------------------|
B|--------------------------------|---------------- 5-- 5-- 6-- 5--|
G|---- 2------ 2------------------| 2------ 2------ 5-- 5-- 5-- 5--|
D|---- 2------ 2------------------| 2------ 2------ 5-- 5----------|
A| 0------ 0------ 0--------------| 0-- 0-- 3-- 3-- 7-- 7-- 8-- 8--|
E|--------------------------------|--------------------------------|
http://classicalguitartablature.blogspot.com/
E|--------------------------------|--------------------------------|
B|---------------- 5-- 5-- 6-- 5--|---------------- 5-- 5-- 6-- 5--|
G|---- 2-- 2------ 5-- 5-- 5-- 5--| 2------ 2------ 5-- 5-- 5-- 5--|
D|---- 2-- 2------ 5-- 5----------| 2------ 2------ 5-- 5----------|
A| 0-- 0-- 3-- 3-- 7-- 7-- 8-- 8--| 0-- 0-- 3-- 3-- 7-- 7-- 8-- 8--|
E|--------------------------------|--------------------------------|
http://classicalguitartablature.blogspot.com/
E|--------------------------------|--------------------------------|
B|---- 1-- 1------ 1------ 1------|--------------------------------|
G|------------ 2------ 2----------| 0------ 0------ 0-- 0-- 0-- 0--|
D|--------------------------------|--------------------------------|
A|--------------------------------| 0-- 0-- 3-- 3-- 7-- 7-- 8-- 8--|
E|---- 3------ 3------ 3------ 3--|--------------------------------|
http://classicalguitartablature.blogspot.com/
E|--------------------------------|--------------------------------|
B|--------------------------------|--------------------------------|
G| 0-- 0-- 0-- 0-- 0-- 0 0---- 0--| 0------ 0------ 0-- 0-- 0-- 0--|
D|--------------------------------|--------------------------------|
A| 0-- 0-- 3-- 3-- 7-- 7-- 8-- 8--| 0-- 0-- 3-- 3-- 7-- 7-- 8-- 8--|
E|--------------------------------|--------------------------------|
http://classicalguitartablature.blogspot.com/
E|--------------------------------|--------------------------------|
B|--------------------------------|-------- 1-- 0------------------|
G| 0-- 0-- 0-- 0-- 0-- 0 0---- 0--|-------- 2---------- 0------ 2--|
D|--------------------------------|---- 3--------------------------|
A| 0-- 0-- 3-- 3-- 7-- 7-- 8-- 8--|--------------------------------|
E|--------------------------------| 1-------------- 1--------------|
http://classicalguitartablature.blogspot.com/
E|--------------------------------|--------------------------------|
B|-------- 1-- 1-- 0-- 0----------|-------- 1-- 0------------------|
G|-------- 2-- 2---------- 0------|-------- 2---------- 0------ 2--|
D|---- 0---------------------- 2--|---- 2--------------------------|
A|--------------------------------| 0-------------- 0--------------|
E| 3------------------------------|--------------------------------|
http://classicalguitartablature.blogspot.com/
E|-------- 0-- 0-- 1-- 0----------|--------------------------------|
B|-------- 1-- 1-- 1-- 1-- 3-- 1--|-------- 1-- 0------------------|
G|---- 2--------------------------|---- 2-------------- 0------ 2--|
D|--------------------------------|--------------------------------|
A| 3-------------- 3--------------|--------------------------------|
E|--------------------------------| 1-------------- 1--------------|
http://classicalguitartablature.blogspot.com/
E|--------------------------------|--------------------------------|
B|-------- 1-- 1-- 0-- 0----------|------ 1-- 0--------------------|
G|-------------- 0-------- 0------|-------------------- 0------ 2--|
D|---- 0---------------------- 2--|---- 2--------------------------|
A|--------------------------------|--------------------------------|
E| 3------------------------------| 4-------------- 4--------------|
http://classicalguitartablature.blogspot.com/
E|------ 0---- 0 1---- 0----------| 1---------- 0-- 1-- 0----------|
B|------ 1---- 1-- 1-- 1-- 3-- 1--|------------------------ 3------|
G|------ 2---- 2 2---- 2-- 2------|-------- 2-------------- 0------|
D|---- 2---------- 2------ 2------|---- 3---------------------- 0--|
A| 0-------------- 0--------------|--------------------------------|
E|--------------------------------| 1------------------------------|
http://classicalguitartablature.blogspot.com/
E|-------- 0-- 0-- 0-- 0-- 3------| 0-------------- 0--------------|
B|-------- 3-- 3-- 3-- 3-- 3-- 1--|------------ 3-- 1-- 3-- 1------|
G|-------- 0-- 0------ 0-- 0------|-------- 2-- 2-- 2-- 2-- 2------|
D|---- 0--------------------------|---- 2-------------- 2-- 2------|
A|--------------------------------| 0------------------------------|
E| 3------------------------------|--------------------------------|
http://classicalguitartablature.blogspot.com/
E|-------- 8-- 8-- 8 8-- 7---- 5--|-- 3 1------ 0-- 1-- 0----------|
B|-------- 5-- 5-- 5 5---- 5-- 1--|---- 1------------------ 3------|
G|-------- 5-- 5-- 5------ 5-- 2--|-- 2 2-- 2----------------------|
D|---- 5--------------------------|--------------------------------|
A|--------------------------------|--------------------------------|
E| 8------------------------------| 1------------------------------|
http://classicalguitartablature.blogspot.com/
E|---- 8 8---- 5-- 8-- 5-- 8------|--------------------------------|
B|---- 0-- 0-- 0---------- 0------| 5------ 5-- 3-- 5-- 3----------|
G|---- 0-- 0-- 0------ 0----------| 4------ 4-- 4-- 4-- 4------ 5--|
D|--------------------------------| 3------ 3-- 3-- 3-- 3------ 7--|
A|--------------------------------|--------------------------------|
E| 3------------------------------| 4------------------------------|
http://classicalguitartablature.blogspot.com/
E|---- 8-- 8-- 5-- 8-- 5-- 8------|-- 5-- 5-- 5-- 5---- 5---- 5----|
B|---- 5-- 5-- 5-- 5-- 5-- 5------|---- 1 1---- 1 1---- 1------ 1--|
G|---- 5-- 5------ 5-- 5-- 5------|---- 2 2---- 2-- 2-- 2------ 2--|
D|--------------------------------|--------------------------------|
A| 0------------------------------|--------------------------------|
E|--------------------------------| 1------ 1------ 1------ 1------|
http://classicalguitartablature.blogspot.com/
E| 3-- 3-- 3------------------ 0--|---- 0-- 0-- 0-- 3------ 0------|
B| 3-- 3------ 3------ 3-- 3-- 1--|---- 1-- 1-- 1-- 1------ 1-- 3--|
G| 0------ 0-- 0------ 0-- 0-- 2--|---- 2-- 2------ 2---------- 0--|
D|------------ 0------ 0-- 0------|---------------------------- 2--|
A|--------------------------------| 0------ 0------ 0------ 0------|
E| 3------ 3------ 3------ 3------|--------------------------------|
http://classicalguitartablature.blogspot.com/
E|---------------------- 0--------|-- 5-- 5-- 5-- 5---- 5---- 5----|
B|---- 1---------- 1-- 3 1---- 1--|---- 1 1---- 1 1---- 1------ 1--|
G|---- 0---------- 0-- 0 0---- 0--|---- 2 2---- 2-- 2-- 2------ 2--|
D|---- 2------ 2-- 2-- 2------ 2--|--------------------------------|
A| 3------ 3------ 3------ 3------|--------------------------------|
E|--------------------------------| 1------ 1------ 1------ 1------|
http://classicalguitartablature.blogspot.com/
E| 3-- 3-- 3----------------------|---------------- 4--------------|
B| 3-- 3------ 3------ 3-- 3-- 5--|---- 5-- 5-- 5-- 5------ 5-- 3--|
G| 0------ 0-- 0------ 0-- 0-- 4--|---- 4-- 4-- 4-- 4------ 4-- 2--|
D|------------ 0------ 0-- 0-- 6--|---- 6-- 6-- 6------ 6-- 6-- 2--|
A|--------------------------------|--------------------------------|
E| 3------ 3------ 3------ 3------| 4------ 4------ 4------ 4------|
http://classicalguitartablature.blogspot.com/
E|---------------------- 0--------| 1---------- 0 1---- 0----------|
B|---- 1------ 1-- 1-- 3-- 1-- 1--| 1---------- 1 1-------- 3------|
G|---- 2------ 2-- 2-- 2-- 2-- 2--|------------ 2-- 2-- 2-- 2------|
D|---- 2------ 2-- 2-- 2------ 2--|------------------------ 3------|
A| 0------ 0------ 0------ 0------|--------------------------------|
E|--------------------------------| 1------ 1------ 1------ 1------|
http://classicalguitartablature.blogspot.com/
E|--------------------------------| 0------ 0-- 0-- 0--------------|
B|-------- 0------ 1------ 3------| 1------ 1-- 1-- 1-- 3------ 1--|
G|-------- 0------ 0------ 0------| 2---------- 2-- 2-- 2------ 0--|
D|---- 0------ 0------ 0------ 0--|---- 2-------------- 2------ 2--|
A|--------------------------------| 0------ 0------ 0------ 0------|
E| 3------ 3------ 3------ 3------|--------------------------------|
http://classicalguitartablature.blogspot.com/
E|------------------------ 0------| 1---------- 0 1---- 0----------|
B|---------------- 1-- 3-- 1-- 1--| 1---------- 1 1-------- 3------|
G|---------------- 0-- 0-- 0-- 0--|------------ 2-- 2-- 2-- 2------|
D|---- 2------ 2-- 2-- 2------ 2--|------------------------ 3------|
A| 3------ 3------ 3------ 3------|--------------------------------|
E|--------------------------------| 1------ 1------ 1------ 1------|
http://classicalguitartablature.blogspot.com/
E|--------------------------------|--------------------------------|
B|-------- 0------ 1------ 3------| 5---- 5---- 3-- 5-- 3------ 1--|
G|-------- 0------ 0------ 0------| 4------ 4-- 4-- 4-- 4------ 2--|
D|---- 0------ 0------ 0------ 0--| 3------ 3-- 3-- 3-- 3------ 2--|
A|--------------------------------|--------------------------------|
E| 3------ 3------ 3------ 3------| 4------ 4------ 4------ 4------|
http://classicalguitartablature.blogspot.com/
E|--------------------------------|--------------------------------|
B|--------------------------------|---------------- 5-- 5-- 6-- 5--|
G|---- 2------ 2------------------| 2------ 2------ 5-- 5-- 5-- 5--|
D|---- 2------ 2------------------| 2------ 2------ 5-- 5----------|
A| 0------ 0------ 0--------------| 0-- 0-- 3-- 3-- 7-- 7-- 8-- 8--|
E|--------------------------------|--------------------------------|
http://classicalguitartablature.blogspot.com/
E|--------------------------------|--------------------------------|
B|---------------- 5-- 5-- 6-- 5--|---------------- 5-- 5-- 6-- 5--|
G|---- 2-- 2------ 5-- 5-- 5-- 5--| 2------ 2------ 5-- 5-- 5-- 5--|
D|---- 2-- 2------ 5-- 5----------| 2------ 2------ 5-- 5----------|
A| 0-- 0-- 3-- 3-- 7-- 7-- 8-- 8--| 0-- 0-- 3-- 3-- 7-- 7-- 8-- 8--|
E|--------------------------------|--------------------------------|
http://classicalguitartablature.blogspot.com/
E|--------------------------------|------------------ 5-- 4--------|
B|---- 1-- 1------ 1------ 1------| 5-------- 6-- 5---------- 3----|
G|------------ 2------ 2----------|---- 5--------------------------|
D|--------------------------------|-------- 7----------------------|
A|--------------------------------|--------------------------------|
E|---- 3------ 3------ 3------ 3--|--------------------------------|
http://classicalguitartablature.blogspot.com/
E|---- 6 5------------ 8-- 7-- 6 7|--------------------------------|
B| 2---------- 5-- 4--------------|---- 8------ 7 8 8 7 7 8 8 7 8--|
G|--------------------------------|-------- 9----------------------|
D|--------------------------------|--------------------------------|
A|--------------------------------|--------------------------------|
E|--------------------------------|--------------------------------|
http://classicalguitartablature.blogspot.com/
E|--------------------------------|--------------------------------|
B|--------------------------------|-------------------- 6-- 5-- 4--|
G|------------ 5------ 7-- 6------|---- 8-- 7----------------------|
D| 7-- 5---------- 7---------- 5--| 4---------- 7-- 6--------------|
A|-------- 7----------------------|--------------------------------|
E|--------------------------------|--------------------------------|
http://classicalguitartablature.blogspot.com/
E|--------------------------------|--------------------------------|
B| 5------------------------------|--------------------------------|
G|---- 5------ 4 5-- 4 5 5 5 4 5 5| 5------------------------------|
D|-------- 7----------------------|--------------------------------|
A|--------------------------------|--------------------------------|
E|--------------------------------|--------------------------------|
http://classicalguitartablature.blogspot.com/
0 com

Lovefool (BASIC)

The Cardigans' tune fingerstyle chord melody guitar BASIC arrangement played in the key of Am.

Lovefool-The Cardigans-BASIC ARRANGEMENT played In the key of E.
http://classicalguitartablature.blogspot.com/
E| 8---- 8-------------------- 8--|---- 8-------- 8------ 8------ 8|
B| 5------ 5------------------ 5--|---- 5-------- 5------ 5--------|
G| 5------ 5------------------ 5--|---- 5-------- 5------ 5--------|
D|--------------------------------|--------------------------------|
A| 0------ 0------------------ 0--|---- 0---------- 0------ 0------|
E|--------------------------------|--------------------------------|
http://classicalguitartablature.blogspot.com/
E|------ 8-------------------- 8--|---- 8---------- 8------ 8------|
B| 5---- 5-------------------- 5--|---- 5---------- 5------ 5------|
G| 5---- 5-------------------- 5--|---- 5---------- 5------ 5------|
D|--------------------------------|------------------------ 5------|
A| 0------ 0---------- 0------ 0--|---- 0------ 0-- 0------ 0------|
E|--------------------------------|--------------------------------|
http://classicalguitartablature.blogspot.com/
http://classicalguitartablature.blogspot.com/
E| 3------ 0-- 3---- 0------------|------------------------------ 1|
B| 1------ 1-- 1---- 1-------- 8--|---- 5---- 8-- 5----------------|
G| 0------ 0-- 0------ 0------ 5--|---- 5---- 5-- 5------ 7------ 0|
D|---------------------------- 7--|---- 7---- 7-- 7-------- 7------|
A| 0------ 0---------- 3------ 5--|---- 5---- 5-- 5------ 5--------|
E|--------------------------------|------------------------------ 3|
http://classicalguitartablature.blogspot.com/
E|------------ 1-------------- 1--|---- 0---- 1---- 0---------- 0--|
B| 3---- 3---- 3------ 3------ 1--|---- 1------ 1-- 1------ 1-- 1--|
G|------ 0---- 0------ 0------ 0--|---- 0---------- 0------ 0-- 0--|
D|-------- 0----------------------|------------------------ 0------|
A|-------------------- 2------ 3--|---- 3------ 3-- 3------ 2------|
E|------ 3------------------------|--------------------------------|
http://classicalguitartablature.blogspot.com/
E|-------------- 0---- 0----------|--------------------------------|
B|-------------- 1---- 1------ 5--|---- 3---- 5---- 3---- 0---- 3--|
G|-------------- 0---- 0------ 5--|---- 5------ 5-- 5---------- 0--|
D|---------------------------- 3--|---- 3------ 3-- 3---------- 0--|
A| 0------ 0------ 0-- 3------ 5--|---- 5------ 5-- 5--------------|
E|--------------------------------|--------------------------------|
http://classicalguitartablature.blogspot.com/
E|--------------------------------|--------------------------------|
B|------------ 0-- 3-- 0------ 1--|--------------------------------|
G|------------ 0-- 0-- 0------ 0--|------------ 0-- 0------ 0------|
D|------------ 0-- 0-- 0------ 2--|------------ 2-- 0------ 0------|
A|-------------------- 2----------| 3---------- 3-- 2------ 2------|
E| 3------ 3------ 3--------------|--------------------------------|
http://classicalguitartablature.blogspot.com/
E| 3------ 0-- 3---- 0------------|------------------------------ 1|
B| 1------ 1-- 1---- 1-------- 8--|---- 5---- 8-- 5----------------|
G| 0------ 0-- 0------ 0------ 5--|---- 5---- 5-- 5------ 7------ 0|
D|---------------------------- 7--|---- 7---- 7-- 7-------- 7------|
A| 0------ 0---------- 3------ 5--|---- 5---- 5-- 5------ 5--------|
E|--------------------------------|------------------------------ 3|
http://classicalguitartablature.blogspot.com/
E|------------ 1-------------- 1--|---- 0---- 1---- 0---------- 0--|
B| 3---- 3---- 3------ 3------ 1--|---- 1------ 1-- 1------ 1-- 1--|
G|------ 0---- 0------ 0------ 0--|---- 0---------- 0------ 0-- 0--|
D|-------- 0----------------------|------------------------ 0------|
A|-------------------- 2------ 3--|---- 3------ 3-- 3------ 2------|
E|------ 3------------------------|--------------------------------|
http://classicalguitartablature.blogspot.com/
E|-------------- 0---- 0----------|--------------------------------|
B|-------------- 1---- 1------ 5--|---- 3---- 5---- 3---- 0---- 3--|
G|-------------- 0---- 0------ 5--|---- 5------ 5-- 5---------- 0--|
D|---------------------------- 3--|---- 3------ 3-- 3---------- 0--|
A| 0------ 0------ 0-- 3------ 5--|---- 5------ 5-- 5--------------|
E|--------------------------------|--------------------------------|
http://classicalguitartablature.blogspot.com/
E|--------------------------------|--------------------------------|
B|------------ 0-- 3-- 0------ 1--|--------------------------------|
G|------------ 0-- 0-- 0------ 0--|------------ 0-- 3---------- 3--|
D|------------ 0-- 0-- 0------ 2--|------------ 2-- 2---------- 2--|
A|-------------------- 2----------| 3---------- 3-- 4---------- 4--|
E| 3------ 3------ 3--------------|--------------------------------|
http://classicalguitartablature.blogspot.com/
E|--------------------------------|-------------- 4----------------|
B| 3------------------------------| 5------ 7------ 5--------------|
G| 4------ 4------ 8------ 4------| 4------ 4------ 4--------------|
D| 3------ 3------ 7--------------| 6------ 6----------------------|
A| 5-------------- 6--------------|--------------------------------|
E|--------------------------------| 0-- 0-- 0-- 0-- 0-- 0-- 0-- 0--|
http://classicalguitartablature.blogspot.com/
E| 5------ 2-- 5-------------- 9--|---- 7---- 5---- 4--------------|
B| 2------ 2-- 7------ 7------ 7--|---- 7---- 7---- 5------ 5------|
G| 2------ 2-- 7------ 7------ 7--|---- 7---- 6---- 4------ 4------|
D|-------------------- 7----------|------------------------ 6------|
A| 0------ 4------ 5--------------|------------ 5------------------|
E|---------------------------- 7--|---- 7---------- 0------ 0------|
http://classicalguitartablature.blogspot.com/
E| 4---------- 4------------------|---------------------- 7--------|
B| 2------ 5-- 5------ 5------ 9--|----10---- 9----10------10------|
G| 2------ 2-- 6------ 6------ 7--|---- 7----11---- 7------ 7------|
D|-------- 2---------- 7------ 9--|---- 9---- 9---- 9--------------|
A| 0------ 4------ 5--------------|--------------------------------|
E|---------------------------- 7--|---- 7------10-- 0------ 0------|
http://classicalguitartablature.blogspot.com/
E| 5------ 2-- 5-------------- 9--|---- 7---- 5---- 4--------------|
B| 2------ 2-- 7------ 7------ 7--|---- 7---- 7---- 5------ 5------|
G| 2------ 2-- 7------ 7------ 7--|---- 7---- 6---- 4------ 4------|
D|-------------------- 7----------|------------------------ 6------|
A| 0------ 4------ 5--------------|------------ 5------------------|
E|---------------------------- 7--|---- 7---------- 0------ 0------|
http://classicalguitartablature.blogspot.com/
E| 4---------- 4------------------|---------------------- 7--------|
B| 2------ 5-- 5------ 5------ 9--|----10---- 9----10------10------|
G| 2------ 2-- 6------ 6------ 7--|---- 7----11---- 7------ 7------|
D|-------- 2---------- 7------ 9--|---- 9---- 9---- 9--------------|
A| 0------ 4------ 5--------------|--------------------------------|
E|---------------------------- 7--|---- 7------10-- 0------ 0------|
http://classicalguitartablature.blogspot.com/
E|---------------------------- 2--|--------------------------------|
B| 2---------- 2------ 5-- 6-- 3--|---- 3------ 3------ 3----------|
G| 2---------- 2-------------- 2--|---- 2------ 2------ 2----------|
D| 4---------- 4------------------|---- 4------ 4------ 4----------|
A|--------------------------------| 2---------- 2-------------- 2--|
E| 2---------- 2------------------|--------------------------------|
http://classicalguitartablature.blogspot.com/
E|-------------------- 2-- 1-- 0--|---- 0---- 0---- 2------ 4------|
B| 0-------- 0---------------- 2--|---- 2------ 2-- 3------ 5------|
G| 1---------- 1-------------- 2--|---- 2------ 2-- 2------ 4------|
D| 0---------- 0------------------|--------------------------------|
A|--------------------------------| 0---------- 0-- 5--------------|
E| 0---------- 0------------------|------------------------ 0------|
http://classicalguitartablature.blogspot.com/
E| 5------ 2-- 5-------------- 9--|---- 7---- 5---- 4--------------|
B| 2------ 2-- 7------ 7------ 7--|---- 7---- 7---- 5------ 5------|
G| 2------ 2-- 7------ 7------ 7--|---- 7---- 6---- 4------ 4------|
D|-------------------- 7----------|------------------------ 6------|
A| 0------ 4------ 5--------------|------------ 5------------------|
E|---------------------------- 7--|---- 7---------- 0------ 0------|
http://classicalguitartablature.blogspot.com/
E| 4---------- 4------------------|---------------------- 7--------|
B| 2------ 5-- 5------ 5------ 9--|----10---- 9----10------10------|
G| 2------ 2-- 6------ 6------ 7--|---- 7----11---- 7------ 7------|
D|-------- 2---------- 7------ 9--|---- 9---- 9---- 9--------------|
A| 0------ 4------ 5--------------|--------------------------------|
E|---------------------------- 7--|---- 7------10-- 0------ 0------|
http://classicalguitartablature.blogspot.com/
E| 5-------------- 5--------------|---------------- 4------ 7------|
B| 5------ 7------ 3------ 6------| 5------ 7------ 5------ 5------|
G| 6------ 6------ 4------ 4------| 4------ 4------ 4------ 4------|
D|---- 7---- 7-------- 3------ 3--| 6------ 6----------------------|
A| 0-------------- 5--------------|--------------------------------|
E|--------------------------------| 0-- 0-- 0-- 0-- 0-- 0-- 0-- 0--|
http://classicalguitartablature.blogspot.com/
E| 5------ 2-- 5-------------- 9--|---- 7---- 5---- 4--------------|
B| 2------ 2-- 7------ 7------ 7--|---- 7---- 7---- 5------ 5------|
G| 2------ 2-- 7------ 7------ 7--|---- 7---- 6---- 4------ 4------|
D|-------------------- 7----------|------------------------ 6------|
A| 0------ 4------ 5--------------|------------ 5------------------|
E|---------------------------- 7--|---- 7---------- 0------ 0------|
http://classicalguitartablature.blogspot.com/
E| 4---------- 4------------------|---------------------- 7--------|
B| 2------ 5-- 5------ 5------ 9--|----10---- 9----10------10------|
G| 2------ 2-- 6------ 6------ 7--|---- 7----11---- 7------ 7------|
D|-------- 2---------- 7------ 9--|---- 9---- 9---- 9--------------|
A| 0------ 4------ 5--------------|--------------------------------|
E|---------------------------- 7--|---- 7------10-- 0------ 0------|
http://classicalguitartablature.blogspot.com/
E| 5------ 2-- 5-------------- 9--|---- 7---- 5---- 4--------------|
B| 2------ 2-- 7------ 7------ 7--|---- 7---- 7---- 5------ 5------|
G| 2------ 2-- 7------ 7------ 7--|---- 7---- 6---- 4------ 4------|
D|-------------------- 7----------|------------------------ 6------|
A| 0------ 4------ 5--------------|------------ 5------------------|
E|---------------------------- 7--|---- 7---------- 0------ 0------|
http://classicalguitartablature.blogspot.com/
E| 5-------------- 5--------------|------------------------ 4------|
B| 5------ 7------ 3------ 6------|-- 5-------- 7---------- 5------|
G| 6------ 6------ 4------ 4------|-- 4-------- 4------------------|
D|---- 7---- 7-------- 3------ 3--| 6---- 6---------- 6---------- 6|
A| 0-------------- 5--------------|--------------------------------|
E|--------------------------------| 0------------------------------|
http://classicalguitartablature.blogspot.com/
E|---- 7--------------------------|------------ 5------------------|
B|---- 5--------------------------|------------ 7------------------|
G|--------------------------------|------------ 5------------------|
D|-------------- 6----------------|---------------------- 7--------|
A|--------------------------------|---------- 0--------------------|
E|--------------------------------|--------------------------------|
http://classicalguitartablature.blogspot.com/
0 com

The Reason (BASIC)

Hoobastank's tune fingerstyle chord melody guitar BASIC arrangement played in the key of E.

The Reason-Hoobastank-BASIC ARRANGEMENT played In the key of E.
http://classicalguitartablature.blogspot.com/
E|------ 4-------------- 4--------|------ 4-------------- 4--------|
B| 5 7-- 5-- 4-- 5-- 7------ 4-- 5|-- 7-- 5-- 4-- 5-- 7-- 5-- 4----|
G| 4 4-- 4-- 4-- 4-- 4-- 4-- 4-- 4|-- 4-- 4-- 4-- 4-- 4-- 4-- 4----|
D| 6 6------ 6-- 6-- 6------ 6-- 6|-- 6------ 6-- 6-- 6------ 6----|
A|--------------------------------|--------------------------------|
E| 0-------------- 0--------------| 0-------------- 0--------------|
http://classicalguitartablature.blogspot.com/
E|--------------------------------|--------------------------------|
B| 0---------- 0------------------|-------------------- 0------ 4--|
G| 1------ 1-------------- 1------|------------ 1------------------|
D|---- 2------------ 2-------- 2--| 2-- 4-------- 2----------------|
A|--------------------------------|------------------------------ 4|
E| 0------------------------------| 0------------------------------|
http://classicalguitartablature.blogspot.com/
http://classicalguitartablature.blogspot.com/
E|--------------------------------|--------------------------------|
B|------------------ 4------------|--------------------------------|
G|-- 6------ 6---------------- 6--| 6 4-- 4-------------------- 1--|
D|------ 6---------------- 6------| 6-------- 7-- 7-- 6-- 4-- 6----|
A|--------------------------------| 4-------------- 4--------------|
E|--------------------------------|--------------------------------|
http://classicalguitartablature.blogspot.com/
E|--------------------------------|--------------------------------|
B|------------ 0---------- 0------|-------------------- 0------ 7--|
G|-------- 1---------- 1----------|------------ 1---------- 1-- 4--|
D|---- 2---------- 2---------- 2--| 2-- 4------ 2-------------- 6--|
A|--------------------------------|--------------------------------|
E| 0------------------------------| 0-------------- 0--------------|
http://classicalguitartablature.blogspot.com/
E|--------------------------------|--------------------------------|
B|---- 5------------ 5------------|--------------------------------|
G|---- 4------ 4---- 4-------- 6--| 6 4---- 4------------------ 2--|
D|---- 6-- 6-------------- 6------| 6 6-- 6-- 7-- 7---- 6-- 4 6----|
A| 4------------------------------| 4-------------- 4--------------|
E|--------------------------------|--------------------------------|
http://classicalguitartablature.blogspot.com/
E|--------------------------------|--------------------------------|
B|------------ 2-------------- 2--| 2-- 0 0------------------------|
G|-------- 2-------------- 2------| 2-------- 2 2------ 1---- 1-- 1|
D|---- 2-------------- 2----------| 2---------------------- 4------|
A| 0-------------- 0--------------| 0-------------- 0--------------|
E|--------------------------------|--------------------------------|
http://classicalguitartablature.blogspot.com/
E|--------------------------------|---------------------------- 0--|
B|---------------------- 0--------|---- 0-- 4-- 0 4-- 0---- 4-- 0--|
G| 2-- 1--------------------------|---- 4-- 4-- 4 4-- 4---- 4-- 1--|
D|---- 4------ 4------ 4------ 4--|---- 4-- 4-- 4-- 4 4---- 4------|
A| 2-------------- 2--------------| 2-------------- 2--------------|
E|--------------------------------|--------------------------------|
http://classicalguitartablature.blogspot.com/
E|--------------------------------| 4------------------------------|
B|---------------------------- 0--| 5------ 7-- 5------ 4---- 4 5--|
G|-------- 1-------------- 1------| 4------ 4-- 4-------- 6--------|
D|-------- 2-------------- 2------|-------- 6-- 6------------------|
A|--------------------------------|--------------------------------|
E| 0-- 0-- 0-- 0-- 0-- 0-- 0-- 0--| 0-- 0-- 0-- 0-- 0-- 0-- 0-- 0--|
http://classicalguitartablature.blogspot.com/
E|--------------------------------| 4---- 4------------ 0----------|
B|--------------------------------| 5------ 7-- 5------ 4---- 4----|
G|-------- 6-------------- 6-- 4--| 4------ 4-- 4------ 4 6---- 2--|
D|-------- 6-------------- 6------|-------- 6-- 6-------- 6---- 2--|
A| 4-- 4-- 4-- 4-- 4-- 4-- 4-- 4--| 4-- 4-- 4-- 4-- 4-- 4-- 4-- 4--|
E|--------------------------------|--------------------------------|
http://classicalguitartablature.blogspot.com/
E|--------------------------------| 4------ 2----------------------|
B|--------------------------------|-------- 2-- 5---- 4---------- 4|
G|-------- 2------------ 2---- 4--| 2------ 2-- 2------ 2---- 4----|
D|-------- 2----------------------|------------ 2------------------|
A| 0-- 0-- 0-- 0-- 0-- 0-- 0-- 0--| 0-- 0-- 0-- 0-- 0-- 0-- 0-- 0--|
E|--------------------------------|--------------------------------|
http://classicalguitartablature.blogspot.com/
E|--------------------------------|------------------------ 5------|
B|--------------------------------|-------- 5-- 5 5-- 5---- 5------|
G| 4------ 4---- 4-- 4-- 4--------| 4------ 4-- 4 4-- 4------------|
D| 4------ 4------------ 4--------| 4------ 4-- 4 4----------------|
A| 2-- 2-- 2-- 2-- 2-- 2-- 2-- 2--| 2-- 2-- 2-- 2-- 2-- 2-- 2-- 2--|
E|--------------------------------|--------------------------------|
http://classicalguitartablature.blogspot.com/
E| 5------------------------------|-------- 0-- 0 0-- 0-- 5--------|
B| 3------------ 3-------- 3------|-------- 3-- 3 3-- 3---- 3------|
G| 0------ 0-------- 0------------| 0------ 0-- 0 0-- 0---- 0------|
D|-- 4---- 4----------------------| 4------------------------------|
A| 5-- 5-- 5-- 5-- 5-- 5-- 5-- 5--| 5-- 5-- 5-- 5-- 5-- 5-- 5-- 5--|
E|--------------------------------|--------------------------------|
http://classicalguitartablature.blogspot.com/
E| 4------ 4----------------------|---------------------- 5------ 5|
B| 5------------ 5 5---- 5--------|-------- 5-- 5 5-- 5---------- 3|
G| 4------------ 4-- 4-- 4--------| 4------ 4-- 4 4-------------- 0|
D|--------------------------------| 6------ 6-- 6 6----------------|
A|---- 7-- 7-- 7 7---- 7-- 7-- 7--|---- 7-- 7-- 7-- 7-- 7 7-- 7-- 5|
E| 0------------------------------| 0------------------------------|
http://classicalguitartablature.blogspot.com/
E|--------------------------------|--------------------------------|
B|-------------- 3------ 3--------|-------- 0-- 0 0-- 0---- 0 2----|
G|-------- 0-------- 0-- 0--------|------ 4------------ 4----------|
D|-------- 4----------------------|---- 4--------------------------|
A|---- 5-- 5-- 5-- 5-- 5 5---- 5--| 2------------------------------|
E|--------------------------------|--------------------------------|
http://classicalguitartablature.blogspot.com/
E|--------------------------------|--------------------------------|
B| 0---------------------------- 0|--------------------------------|
G|------------------------------ 1|--------------------------------|
D|------------------------------ 4|--------------------------------|
A|--------------------------------|--------------------------------|
E|---------------------------- 0--|--------------------------------|
http://classicalguitartablature.blogspot.com/