To celebrate the anniversary, I am giving you (finally...) : iPhone LickByNeck !!!!!!

18 And Life (BASIC)

Skid Row's tune fingerstyle chord melody guitar BASIC arrangement played in the key of C#m.

18 And Life-Skid Row-BASIC ARRANGEMENT played in the key of C#m.
http://classicalguitartablature.blogspot.com/
E|--------------------------------|--------------------------------|
B|---- 5---------- 4--------------|---- 5---------- 4--------------|
G|-------- 6-------- 4------------|-------- 6---------- 4----------|
D|------------ 6---------- 4------|------------ 6---------- 4------|
A| 4-------------------------- 4 6| 4------------------------------|
E|--------------------------------|---------------------------- 7--|
http://classicalguitartablature.blogspot.com/
E|--------------------------------|-------- 0-------------- 0------|
B|---- 5---------- 4--------------|-------- 0-------------- 0------|
G|-------- 6-------- 4------------|-------- 2-------------- 4------|
D|------------ 6---------- 4------|---- 2-------------- 4----------|
A| 4-------------------------- 4--| 0-------------- 2--------------|
E|--------------------------------|--------------------------------|
http://classicalguitartablature.blogspot.com/
http://classicalguitartablature.blogspot.com/
E| 4-- 4------------------ 4------|--------------------------------|
B| 5-- 5-- 7-- 5-- 7-- 5----------|------------ 5-- 4--------------|
G| 4-- 4-- 4-- 4-- 4-- 4----------|---- 6-- 6---- 4---- 4---- 4----|
D|-------- 6-- 6-- 4---------- 4--|---- 6-- 6-------------- 6------|
A| 4-------------- 4--------------| 4------------ 4----------------|
E|--------------------------------|--------------------------------|
http://classicalguitartablature.blogspot.com/
E|-- 4------------------ 4---- 4--| 9-- 9-------- 7------ 9--------|
B|---- 5-- 7-- 5-- 7---- 7--------| 9------12-- 9-------- 7--------|
G|---- 4------ 4-- 4--------------| 9-- 9-- 9---------- 8------ 8--|
D|-------- 6-- 6-- 4-- 4----------|--------11----------------------|
A| 4-------------- 4--------------| 0------------------------------|
E|--------------------------------|---------------- 7--------------|
http://classicalguitartablature.blogspot.com/
E|--------------------------------|---- 4------------------ 4------|
B|---------- 5---- 5-- 4----------|---- 5-- 7-- 5-- 7------ 7------|
G|---- 6 6-------- 4------ 6-- 4--|---- 4-- 4-- 4-- 4--------------|
D|---- 6-------- 4----------------|-------- 6------ 4-- 4------ 4--|
A| 4------------ 4----------------| 4-------------- 4--------------|
E|--------------------------------|--------------------------------|
http://classicalguitartablature.blogspot.com/
E|--------------------------------| 4-- 4-- 2------ 2------ 4------|
B|------------ 5-- 7-- 5-- 4-- 5--| 2-- 2-- 2-- 5-- 4------ 4------|
G|---- 6-- 6------ 4-- 4-- 4-- 4--| 2-- 2-- 2---------- 4------ 4--|
D|---- 6-------- 4----------------|--------------------------------|
A| 4------------ 4----------------| 0-------------- 2--------------|
E|--------------------------------|--------------------------------|
http://classicalguitartablature.blogspot.com/
E|---- 4-- 4 4-- 4-- 4-------- 4--|--------------------------------|
B|---- 2-- 2 2-- 2---- 2------ 2--|12-- 9--------------------------|
G|---- 2-- 2 2-- 2---- 2 2--------| 9------11-- 911---- 9------ 9--|
D|---------------- 2--------------|11----------1111----11--11------|
A| 0-------------- 0--------------| 9-------------- 9--------------|
E|--------------------------------|--------------------------------|
http://classicalguitartablature.blogspot.com/
E| 4 4-- 4-- 4 4---------------- 5|---- 5-- 5-- 5---------- 7------|
B| 4-- 4 4-- 4 4---- 5---- 5 7-- 5|---- 5-- 5-- 5 9---- 9------ 9--|
G| 5-- 5 5-- 5 5---- 5---- 5---- 6|---- 6-- 6-- 6 8---- 8----------|
D|------------------ 4---- 4------|-------------- 9---- 9----------|
A|------------------------------ 0|--------------------------------|
E| 4-------------- 4--------------|---------------- 7--------------|
http://classicalguitartablature.blogspot.com/
E|--------------------------------|---- 4-------- 2---- 2 4-- 2----|
B|---------- 5-- 5---- 4-- 2------|---- 5-- 7-- 5 4---- 4------ 5--|
G|---- 6-- 6---------- 2------ 4--|---- 4-- 4-- 4-------- 4--------|
D|---- 6-- 6---- 2---- 2----------|------------ 6------------------|
A| 4-------------- 0--------------|---------------- 2--------------|
E|--------------------------------| 0------------------------------|
http://classicalguitartablature.blogspot.com/
E|--------------------------------|---- 7-- 7-- 7 9-- 7-- 9--------|
B|---------- 5-- 7---- 5-- 4-- 5--|-------- 5-- 5 7---- 7 7--------|
G|---- 6-- 6---------- 6 6---- 6--|---- 4-- 4-- 4 8---- 8------ 8--|
D|---- 6-- 6---------- 7 7--------|-------------------------- 9----|
A| 4-------------- 0--------------|--------------------------------|
E|--------------------------------| 0-------------- 7--------------|
http://classicalguitartablature.blogspot.com/
E|--------------------------------|---- 4-------- 2---- 2 4-- 2----|
B|---------- 5-- 5---- 4-- 2------|---- 5-- 7-- 5 4---- 4------ 5--|
G|---- 6-- 6---------- 2------ 4--|---- 4-- 4-- 4-------- 4--------|
D|---- 6-- 6---- 2---- 2----------|------------ 6------------------|
A| 4-------------- 0--------------|---------------- 2--------------|
E|--------------------------------| 0------------------------------|
http://classicalguitartablature.blogspot.com/
E|--------------------------------| 4-------------------------- 4--|
B|---------- 5-- 7---- 5-- 4-- 5--| 5------ 7-- 5-- 7------ 7-- 5--|
G|---- 6-- 6---------- 6 6---- 6--| 4------ 4-- 4-- 8------ 8-- 6--|
D|---- 6-- 6---------- 7 7--------|---- 6-- 6-- 6------ 9-- 9------|
A| 4-------------- 0--------------|--------------------------------|
E|--------------------------------| 0-------------- 7--------------|
http://classicalguitartablature.blogspot.com/
E|--------------------------------|------------------------------ 4|
B|-------- 5------ 5--------------|------------------------------ 5|
G|-------- 6------ 6------ 6---- 6|-------- 6-------------- 6---- 4|
D|-------- 6------ 6------ 6---- 6|-------- 6------ 6------ 6------|
A| 4-- 4-- 4-- 4-- 4-- 4-- 4-- 4--| 4-- 4-- 4-- 4-- 4-- 4-- 4-- 4--|
E|--------------------------------|--------------------------------|
http://classicalguitartablature.blogspot.com/
E|-- 4---------------- 4------ 4--| 7---------------------------- 4|
B|-- 5-- 7---- 5-- 7-- 5----------| 7-- 9-- 7---- 7----------------|
G|-- 4-- 4---- 4-- 4-- 4----------| 8-- 8-- 8 9-------- 9------ 9--|
D|------ 6---- 6-- 6------ 6------|---- 9-- 9-- 9 9---- 9 9--------|
A|--------------------------------|--------------------------------|
E| 0-------------- 0--------------| 7-------------- 7--------------|
http://classicalguitartablature.blogspot.com/
E|-- 4-- 4-- 4-- 4------------ 2--|12------11------12------11--12--|
B| 2-- 2-- 2 2-- 2-- 5-- 5---- 5--|---------------- 7---------- 9--|
G| 2-- 2-- 2 2-- 2-- 2-- 2---- 2--| 8------ 8------ 8---------- 9--|
D|------------------ 2-- 2--------|--------------------------------|
A| 0------ 0------ 0------ 0------|--------------------------------|
E|--------------------------------| 7-- 7-- 7-- 7-- 7-- 7-- 7------|
http://classicalguitartablature.blogspot.com/
E|--11 9--------------------------|---- 4-------- 2---- 2 4-- 2----|
B|-- 9 9---------- 5-- 4-- 2------|---- 5-- 7-- 5 4---- 4------ 5--|
G|---- 9------ 9-------------- 4--|---- 4-- 4-- 4-------- 4--------|
D|--------11---------- 2----------|------------ 6------------------|
A|---------------- 0--------------|---------------- 2--------------|
E| 9------------------------------| 0------------------------------|
http://classicalguitartablature.blogspot.com/
E|--------------------------------|---- 7-- 7-- 7 9-- 7-- 9--------|
B|---------- 5-- 7---- 5-- 4-- 5--|-------- 5-- 5 7---- 7 7--------|
G|---- 6-- 6---------- 6 6---- 6--|---- 4-- 4-- 4 8---- 8------ 8--|
D|---- 6-- 6---------- 7 7--------|-------------------------- 9----|
A| 4-------------- 0--------------|--------------------------------|
E|--------------------------------| 0-------------- 7--------------|
http://classicalguitartablature.blogspot.com/
E|--------------------------------|---- 4-------- 2---- 2 4-- 2----|
B|---------- 5-- 5---- 4-- 2------|---- 5-- 7-- 5 4---- 4------ 5--|
G|---- 6-- 6---------- 2------ 4--|---- 4-- 4-- 4-------- 4--------|
D|---- 6-- 6---- 2---- 2----------|------------ 6------------------|
A| 4-------------- 0--------------|---------------- 2--------------|
E|--------------------------------| 0------------------------------|
http://classicalguitartablature.blogspot.com/
E|--------------------------------| 4-------------------------- 4--|
B|---------- 5-- 7---- 5-- 4-- 5--| 5------ 7-- 5-- 7------ 7------|
G|---- 6-- 6---------- 6 6---- 6--| 4------ 4-- 4-- 8------ 8------|
D|---- 6-- 6---------- 7 7--------|---- 6-- 6-- 6------ 9-- 9------|
A| 4-------------- 0--------------|--------------------------------|
E|--------------------------------| 0-------------- 7--------------|
http://classicalguitartablature.blogspot.com/
E|--------------------------------|--------------------------------|
B|---- 5---------- 4--------------|---- 5---------- 4--------------|
G|-------- 6---------- 4----------|-------- 6---------- 4----------|
D|------------ 6---------- 4------|------------ 6---------- 4------|
A| 4-------------------------- 4 6| 4------------------------------|
E|--------------------------------|---------------------------- 7--|
http://classicalguitartablature.blogspot.com/
E|--------------------------------|-------- 0-------------- 0------|
B|---- 5---------- 4--------------|-------- 0-------------- 0------|
G|-------- 6-------- 4------------|-------- 2-------------- 4------|
D|------------ 6---------- 4------|---- 2-------------- 4----------|
A| 4-------------------------- 4--| 0-------------- 2--------------|
E|--------------------------------|--------------------------------|
http://classicalguitartablature.blogspot.com/
E|---- 0--------------------------|--------------------------------|
B|-- 0----------------------------|--------------------------------|
G|-- 8----------------------------|--------------------------------|
D| 6------------------------------|--------------------------------|
A| 4------------------------------|--------------------------------|
E|--------------------------------|--------------------------------|
http://classicalguitartablature.blogspot.com/

0 ความคิดเห็น:

แสดงความคิดเห็น