To celebrate the anniversary, I am giving you (finally...) : iPhone LickByNeck !!!!!!

Cinema Paradiso Love Theme (BASIC)

Ennio Morricone's tune fingerstyle chord melody guitar BASIC arrangement played in the key of Em.

Cinema Paradiso Love Theme-Ennio Morricone-BASIC ARRANGEMENT played In the key of Em.
http://classicalguitartablature.blogspot.com/
E|--------------------------------| 3-------- 0-------- 3-- 2-- 0--|
B| 5-------------------------- 7--| 0---------- 0-- 1-- 1-- 1-- 1--|
G| 4------ 4-------------- 4------|-------- 0------ 0-- 0-- 0-- 0--|
D|---- 5------ 5------ 5----------|---- 2---------- 2--------------|
A| 2-------------- 6--------------|---------------- 0------------ 5|
E|--------------------------------| 0------------------------------|
http://classicalguitartablature.blogspot.com/
E|---- 5--------------------------|------------ 2-- 5-- 3 2-- 3-- 7|
B| 7-------------- 1------ 0------|-------- 3------ 0------------ 0|
G| 5------ 7-- 5-- 0------ 0------|---- 4------------------------ 0|
D| 7-------------- 0-- 0------ 0--|---- 4--------------------------|
A|--------------------------------|--------------------------------|
E|---------------- 3--------------| 2-------------- 0--------------|
http://classicalguitartablature.blogspot.com/
http://classicalguitartablature.blogspot.com/
E|---------------- 0----------10--| 8----------------------12--10--|
B|---------- 0---- 0-- 4------ 8--| 5------------------10--10------|
G|-------- 0------ 0------ 9-- 9--| 5---------- 5---- 9-- 9------ 8|
D|-- 0----------------------------|---- 7------ 5----10------------|
A| 5------------ 3----------------| 0-------------- 9--------------|
E|------------------------ 7------|-------- 3------------ 8------ 7|
http://classicalguitartablature.blogspot.com/
E|10 8---- 7 5-- 3---------- 3----| 5-- 3-- 2------ 0--------------|
B| 8---- 8------ 0----------------| 0-- 0------ 3-- 0------ 0------|
G|------ 8-------------- 0--------| 0-- 0---------------- 0--------|
D|-------------------- 0----------|-------------------- 2------ 2--|
A|------ 8------------------------| 5-------------- 3--------------|
E|---------------- 0--------------|--------------------------------|
http://classicalguitartablature.blogspot.com/
E|-------- 2-- 3-- 2---------- 2--|---------------- 3-------- 0----|
B|---- 5-- 2------ 5------ 5------| 4---- 4 5------ 0---------- 0--|
G|---- 4-- 3------ 2---- 2--------|---- 2------ 4---------- 0------|
D|-- 5---------------- 4----------|-- 4------ 2 4------ 2----------|
A| 4-------------- 2--------------| 2------ 4-- 6------------------|
E|------ 2------------------------|---------------- 0--------------|
http://classicalguitartablature.blogspot.com/
E|---- 3-- 2-- 0------ 5----------|---------------------------- 2--|
B| 1-- 1-- 1-- 1-- 7--------------| 1------ 0-------------- 3------|
G| 0-- 0-- 0-- 0-- 5------ 7-- 5--| 0------ 0---------- 4----------|
D| 2-------------- 7--------------| 0-- 0------ 0------ 4----------|
A| 0------------ 5----------------|--------------------------------|
E|--------------------------------| 3-------------- 2--------------|
http://classicalguitartablature.blogspot.com/
E| 5-- 3 2-- 3-- 7----------------| 0----------10-- 8--------------|
B| 0------------ 0---------- 0----| 0-- 4------ 8-- 5--------------|
G|-------------- 0-------- 0------| 0------ 9-- 9-- 5---------- 5--|
D|------------------ 0------------|-------------------- 7------ 5--|
A|---------------- 5------------ 3|---------------- 0--------------|
E| 0------------------------------|-------- 7-------------- 3------|
http://classicalguitartablature.blogspot.com/
E|--------12--10--10 8---- 7 5-- 3|---------- 3---- 5-- 3-- 2------|
B|----10--10------ 8---- 8------ 0|---------------- 0-- 0------ 3--|
G|-- 9-- 9------ 8------ 8--------|------ 0-------- 0-- 0----------|
D|--10----------------------------|---- 0--------------------------|
A| 9-------------------- 8--------|---------------- 5--------------|
E|------ 8------ 7----------------| 0------------------------------|
http://classicalguitartablature.blogspot.com/
E| 0------------------ 0-- 2-- 3--|--------------------------------|
B| 0------ 0---------- 0----------| 3------ 3----------------------|
G|------ 0------------ 0----------| 4------ 4---------- 5-- 5------|
D|---- 2------ 2---- 2------------| 5-- 5------ 5------ 5-- 5-- 5--|
A| 3-------------- 4--------------| 5-------------- 5--------------|
E|--------------------------------|--------------------------------|
http://classicalguitartablature.blogspot.com/
E|--------------------------------|--------------------------------|
B| 1------------ 0---- 0----------|--------------------------------|
G| 0------ 0---------- 0----------|--------------------------------|
D|---- 0--------------------------|--------------------------------|
A|--------------------------------|--------------------------------|
E| 3------------------ 3----------|--------------------------------|
http://classicalguitartablature.blogspot.com/

0 ความคิดเห็น:

แสดงความคิดเห็น