To celebrate the anniversary, I am giving you (finally...) : iPhone LickByNeck !!!!!!

Cinema Paradiso Love Theme (Intermediate)

Ennio Morricone's tune fingerstyle chord melody guitar Intermediate arrangement played in the key of Em.

Cinema Paradiso Love Theme-Ennio Morricone-Intermediate ARRANGEMENT played In the key of Em.
http://classicalguitartablature.blogspot.com/
E|--------------------------------| 3------------------ 3-- 2-- 0--|
B| 5-------------------------- 7--|------------ 0-- 1------ 3-- 3--|
G| 4------ 4-------------- 4------|------------ 0-- 2--------------|
D|---- 5------ 5------ 5----------|---- 0------ 0------------------|
A| 2-------------- 6--------------|-------- 5------ 3------ 2------|
E|--------------------------------| 0------------------------------|
http://classicalguitartablature.blogspot.com/
E|---- 5--------------------------|------------ 2-- 5--------------|
B| 7------ 3------ 1------ 0------|---- 0-- 3------ 8-- 8-- 7-- 8--|
G| 5-------- 5---- 2------ 0------|---- 2-- 2------ 7-- 7-- 5-- 5--|
D| 7---- 4------------ 1-- 0-- 0--|---- 0-------------- 5-- 7-- 7--|
A|--------------------------------|---------------- 7------ 6------|
E| 5------ 4------ 2------ 3------| 2------ 1----------------------|
http://classicalguitartablature.blogspot.com/
http://classicalguitartablature.blogspot.com/
E| 7--------------------------10--| 8----------------------12--10--|
B| 8-------------- 5-- 4-- 5-- 8--| 6------------------10--12--10--|
G| 9-- 9------ 9-- 4-- 2-- 7-- 9--| 5------ 2----------11--11-- 9--|
D|---------------- 5-- 4-- 6------|-------- 2----------10----------|
A|---------------- 3-- 2------ 0--|--------------------------------|
E|10------ 9-------------- 6------| 4-- 3-- 2 1---- 0------11-- 9--|
http://classicalguitartablature.blogspot.com/
E|10-- 8-- 7-- 5-- 3--------------|-- 5 3 2------ 0----------------|
B|10-- 7-- 4-- 3-- 5--------------|------------ 3------ 0----------|
G| 9-- 8-- 4-- 3-------- 4---- 4--|------------------ 0-------- 0--|
D|-------------------- 5------ 5--|-------------------------- 2----|
A|--------------------------------|-------- 5---- 4------ 3--------|
E| 8-- 7-- 5-- 4-- 3------ 2------| 0------------------------------|
http://classicalguitartablature.blogspot.com/
E|--------------------------------|---------------- 3--------------|
B|---- 5-- 7-- 8-- 7--------------|---------------------------- 0--|
G|---- 6-- 6------ 5---- 5------ 5| 4------ 2-- 2-------------- 0--|
D|---- 7-- 5---------- 7------ 4--|---- 2-- 2-- 1------ 0------ 0--|
A|--------------------------------|------------------------ 5------|
E| 7---- 6-------- 5------ 4------| 3---- 2---- 1-- 0--------------|
http://classicalguitartablature.blogspot.com/
E|---- 3-- 2-- 0------ 5----------|---------------------------- 2--|
B| 1------ 3-- 3-- 7------ 3------| 1------ 0---------- 0-- 3------|
G| 2-------------- 5-------- 5----| 2------ 0---------- 2-- 2------|
D|---------------- 7---- 4--------|---- 1-- 0-- 0------ 0----------|
A| 3------ 2----------------------|--------------------------------|
E|---------------- 5------ 4------| 2------ 3------ 2------ 1------|
http://classicalguitartablature.blogspot.com/
E| 5-------------- 7--------------|------------10-- 8--------------|
B| 8-- 8-- 7-- 8-- 8--------------| 5-- 4-- 5-- 8-- 6--------------|
G| 7-- 7-- 5-- 5-- 9-- 9------ 9--| 4-- 2-- 7-- 9-- 5------ 2------|
D|---- 5-- 7-- 7------------------| 5-- 4-- 6-------------- 2------|
A| 7------ 6----------------------| 3-- 2------ 0------------------|
E|----------------10------ 9------|-------- 6------ 4-- 3-- 2 1----|
http://classicalguitartablature.blogspot.com/
E|--------12--10--10-- 8-- 7-- 5--| 3---------------- 5 3 2------ 0|
B|----10--12--10--10-- 7-- 4-- 3--| 5-------------------------- 3--|
G|----11--11-- 9-- 9-- 8-- 4-- 3--|------ 4---- 4------------------|
D|----10--------------------------|---- 5------ 5------------------|
A|--------------------------------|------------------------ 5---- 4|
E| 0------11-- 9-- 8-- 7-- 5-- 4--| 3------ 2------ 0--------------|
http://classicalguitartablature.blogspot.com/
E|--------------------------------|--------------------------------|
B|---- 0-------------- 5-- 7-- 8--| 3------------------ 1-- 1------|
G|-- 0-------- 0------ 6-- 6------| 5---- 5---- 5------ 2-- 2-- 2--|
D|---------- 2-------- 7-- 5------|---- 5---- 3-------- 2---- 2----|
A|------ 3------------------------|--------------------------------|
E|---------------- 7---- 6--------| 5---- 4-------- 3------ 2------|
http://classicalguitartablature.blogspot.com/
E|--------------------------------|--------------------------------|
B| 1-------- 1-- 0----------------|--------------------------------|
G|------ 0------ 0---- 4----------|--------------------------------|
D|---- 1-------- 2---- 5----------|--------------------------------|
A|-------------------- 6----------|--------------------------------|
E| 1------------ 0----------------|--------------------------------|
http://classicalguitartablature.blogspot.com/

0 ความคิดเห็น:

แสดงความคิดเห็น