To celebrate the anniversary, I am giving you (finally...) : iPhone LickByNeck !!!!!!

Con Te Partiro - Time To Say Goodbye (BASIC)

Andrea Bocelli And Sarah Brightman's tune fingerstyle chord melody guitar BASIC arrangement played in the key of E.

Con te Partiro-Time to say goodbye-Andrea Bocelli Sarah Brightman-BASIC Arrangement played in the key of E.
http://classicalguitartablature.blogspot.com/
E|-------------- 0----------------|---------------------- 2--------|
B| 0------------------------------|-------------- 4-------------- 5|
G| 1------------------------ 1----|---------- 4------------------ 6|
D|-------- 2------------ 2--------|------ 4------------------------|
A|------------------------------ 2|------------------------------ 4|
E| 0------------------------------|--------------------------------|
http://classicalguitartablature.blogspot.com/
E|--------------------------------|---------------- 2--------------|
B|--------------------------------|------------ 2------------------|
G|-------------- 6----------------|---------- 2------------ 2------|
D|------ 6------------------------|------ 2------------------------|
A|---------------------- 4------ 0|--------------------------------|
E|--------------------------------|--------------------------------|
http://classicalguitartablature.blogspot.com/
http://classicalguitartablature.blogspot.com/
E| 4------------------------------|-------------- 2---- 5---- 4----|
B| 5------------ 5----------------|------------ 4------------------|
G|------------ 4------ 4------ 4--|------ 2------------------------|
D|-------- 6-------------- 6------|---- 4-------------------- 4----|
A|--------------------------------| 2------------------------------|
E| 0------------------------------|------------------------------ 9|
http://classicalguitartablature.blogspot.com/
E|----------------------12------11|----------12----11--------------|
B|-------------- 9--------------12|----12----------12--12---- 9----|
G| 9-------- 9------ 9---------- 9|---- 9-------- 9---- 9----------|
D|------11------------------------|----11--------------11----------|
A|---------------------------- 0--|-------------- 0----------------|
E|--------------------------------|--------------------------------|
http://classicalguitartablature.blogspot.com/
E| 7-------------------- 4--------|---- 5---- 4---- 2--------------|
B| 5-------------- 5--------------| 7-------------- 5-- 5---- 4----|
G| 4---------- 4------ 4----------| 6------------ 2---- 2----------|
D|-------- 6------------------ 6--| 7---------------------------- 2|
A|--------------------------------| 0------------ 2-------------- 2|
E| 0------------------------------|--------------------------------|
http://classicalguitartablature.blogspot.com/
E|--------------------------------|------------ 2---------- 2-- 4--|
B|-------- 2------ 2-- 4-- 2-- 4--| 5-- 4-- 5------ 5-- 2----------|
G| 2-- 4---- 4--------------------| 2------------------------------|
D|--------------------------------| 2------------------------------|
A|--------------------------------| 2------------------------------|
E|--------------------------------|--------------------------------|
http://classicalguitartablature.blogspot.com/
E| 5-------------- 4--------------|--------------------------------|
B| 5---------- 5-- 5--------------|-------- 2------ 2-- 4-- 2-- 4--|
G|------ 6-------- 4---------- 4--| 2-- 4---- 4---- 2--------------|
D|---------------------- 6--------| 2-------------- 2--------------|
A|--------------------------------| 0-------------- 2--------------|
E| 0------------------------------|--------------------------------|
http://classicalguitartablature.blogspot.com/
E|------------ 2-------------- 4--| 5-------------- 4--------------|
B| 5-- 4-- 5------ 5------ 7------| 5---------- 5-- 5--------------|
G| 2-------------- 6-- 6-- 4------|------ 6-------- 4---------- 4--|
D| 2------------ 4-------- 4------|---------------------- 6--------|
A| 4------------ 6----------------|--------------------------------|
E|--------------------------------| 0------------------------------|
http://classicalguitartablature.blogspot.com/
E|--------------------------------| 5-------------- 4--------------|
B| 5-------- 4 2-- 4--------------| 2------------------ 2----------|
G| 2------------------------ 2----|------------ 2-------------- 2--|
D|------ 2-------------- 2--------|-------- 2-------------- 2------|
A| 2-------------- 2--------------| 2------------------------------|
E|--------------------------------|--------------------------------|
http://classicalguitartablature.blogspot.com/
E|--------------------------------|--------------------------------|
B| 2---------- 2-- 4---------- 4--| 0------------------------ 2 0--|
G|-------- 1------ 2------ 2------| 1-------------- 1------------ 4|
D|---- 2-------------- 2----------|-------- 2-------------- 2------|
A| 0-------------- 2--------------|--------------------------------|
E|--------------------------------| 0------------------------------|
http://classicalguitartablature.blogspot.com/
E|--------------------------------|-------------------------- 4----|
B|-------------------------- 5 4--|--------------------------------|
G|---------------- 4--------------| 4---- 4-- 4---- 4-- 4----------|
D|-------- 4------------ 4--------| 6---- 6-- 6---- 6-- 6----------|
A| 6------------------------------| 4------------------------------|
E|--------------------------------|--------------------------------|
http://classicalguitartablature.blogspot.com/
E| 5------------------------------|--------------------------------|
B|---------- 5-- 5------ 4--------| 0------ 0------------ 2-- 0----|
G|------ 2------ 2-------- 2------| 1-------------- 1--------------|
D|---- 2---------- 4 4------------|---- 2------ 2------ 2----------|
A| 0-------------- 2--------------|--------------------------------|
E|--------------------------------| 0------------------------------|
http://classicalguitartablature.blogspot.com/
E|--------------------------------|-------------------------- 4----|
B|---------------------- 5-- 4----| 7-------------------- 7--------|
G| 4------ 4---- 4----------------| 6-- 6-------- 6----------------|
D|---- 4---- 4-------- 4-------- 6|------------ 6------ 6----------|
A| 6---------------------------- 4|------------------------------ 0|
E|--------------------------------|--------------------------------|
http://classicalguitartablature.blogspot.com/
E| 5------------------------------|--------------------------------|
B| 5-- 5---- 5---- 5------ 4------|--------------------------------|
G| 2-- 2---- 2---- 2--------------|--------------------------------|
D|---- 2---------- 2-- 2----------|------------------------------ 4|
A|-------------- 2----------------|--------------------------------|
E|--------------------------------|------------------------------ 0|
http://classicalguitartablature.blogspot.com/
E|---------------- 0--------------|---------------------- 2--------|
B| 0------------------------------|-------------- 4-------------- 5|
G| 1-------------------------- 1--|---------- 4------------------ 6|
D|-------- 4-------------- 4------|------ 4------------------------|
A|------------------------------ 2|------------------------------ 4|
E|--------------------------------|--------------------------------|
http://classicalguitartablature.blogspot.com/
E|--------------------------------|---------------- 2--------------|
B|--------------------------------|------------ 2------------------|
G|-------------- 6----------------|---------- 2------------ 2------|
D|------ 6------------------------|------ 2------------------------|
A|---------------------- 4------ 0|--------------------------------|
E|--------------------------------|--------------------------------|
http://classicalguitartablature.blogspot.com/
E| 4------------------------------|-------------- 2---- 5---- 4----|
B| 5------------ 5----------------|------------ 4------------------|
G|------------ 4------ 4------ 4--|------ 2------------------------|
D|-------- 6-------------- 6------|---- 4-------------------- 4----|
A|--------------------------------| 2------------------------------|
E| 0------------------------------|------------------------------ 9|
http://classicalguitartablature.blogspot.com/
E|----------------------12------11|----------12----11--------------|
B|-------------- 9--------------12|----12----------12--12---- 9----|
G| 9-------- 9------ 9---------- 9|---- 9-------- 9---- 9----------|
D|------11------------------------|----11--------------11----------|
A|---------------------------- 0--|-------------- 0----------------|
E|--------------------------------|--------------------------------|
http://classicalguitartablature.blogspot.com/
E| 7-------------------- 4--------|---- 5---- 4---- 2--------------|
B| 5-------------- 5--------------| 7-------------- 5-- 5---- 4----|
G| 4---------- 4------ 4----------| 6------------ 2---- 2----------|
D|-------- 6------------------ 6--| 7---------------------------- 2|
A|--------------------------------| 0------------ 2-------------- 2|
E| 0------------------------------|--------------------------------|
http://classicalguitartablature.blogspot.com/
E|--------------------------------|------------ 2---------- 2-- 4--|
B|-------- 2------ 2-- 4-- 2-- 4--| 5-- 4-- 5------ 5-- 2----------|
G| 2-- 4---- 4--------------------| 2------------------------------|
D|--------------------------------| 2------------------------------|
A|--------------------------------| 2------------------------------|
E|--------------------------------|--------------------------------|
http://classicalguitartablature.blogspot.com/
E| 5-------------- 4--------------|--------------------------------|
B| 5---------- 5-- 5--------------|-------- 2------ 2-- 4-- 2-- 4--|
G|------ 6-------- 4---------- 4--| 2-- 4---- 4---- 2--------------|
D|---------------------- 6--------| 2-------------- 2--------------|
A|--------------------------------| 0-------------- 2--------------|
E| 0------------------------------|--------------------------------|
http://classicalguitartablature.blogspot.com/
E| 2-------------- 4--------------|--------------------------------|
B|------------ 5------------------|-------- 2------ 2-- 4-- 2-- 4--|
G|-------- 2-------------- 4------| 2-- 4---- 4---- 2--------------|
D|---- 2-------------- 4------ 4--| 2-------------- 2--------------|
A| 4-------------- 6--------------| 0-------------- 2------------ 4|
E|--------------------------------|--------------------------------|
http://classicalguitartablature.blogspot.com/
E|--------------------------------|--------------------------------|
B| 5------------------------------|------ 2-------- 2-- 4 2---- 4--|
G| 4---------- 4------ 4----------| 2-- 4---- 4-- 2----------------|
D| 2---- 2-------- 2-------- 2-- 2|-------------- 2----------------|
A|------------------------------ 4|-------------- 2----------------|
E|--------------------------------|--------------------------------|
http://classicalguitartablature.blogspot.com/
E| 2-------------- 4---------- 2--| 5---------- 4------------------|
B|------------ 5------------------| 2------------------------------|
G|-------- 2-------------- 2------|-------- 2------ 4------ 4------|
D|---- 2-------------- 2----------|---- 2-------------- 4------ 4--|
A| 0-------------- 2--------------| 4-------------- 6--------------|
E|--------------------------------|--------------------------------|
http://classicalguitartablature.blogspot.com/
E|--------------------------------|---------------- 0--------------|
B|--------------------------------| 0------------------------------|
G| 4------------------------------| 1-------------------------- 1--|
D|------------------------------ 4|-------- 4-------------- 4------|
A|--------------------------------|------------------------------ 2|
E|------------------------------ 0|--------------------------------|
http://classicalguitartablature.blogspot.com/
E|---------------------- 2--------|--------------------------------|
B|-------------- 4-------------- 5|--------------------------------|
G|---------- 4------------------ 6|-------------- 6----------------|
D|------ 4------------------------|------ 6------------------------|
A|------------------------------ 4|---------------------- 4------ 0|
E|--------------------------------|--------------------------------|
http://classicalguitartablature.blogspot.com/
E|---------------- 2--------------| 4------------------------------|
B|------------ 2------------------| 5------------ 5----------------|
G|---------- 2------------ 2------|------------ 4------ 4------ 4--|
D|------ 2------------------------|-------- 6-------------- 6------|
A|--------------------------------|--------------------------------|
E|--------------------------------| 0------------------------------|
http://classicalguitartablature.blogspot.com/
E|-------------- 2---- 5---- 4----|----------------------12------11|
B|------------ 4------------------|-------------- 9--------------12|
G|------ 2------------------------| 9-------- 9------ 9---------- 9|
D|---- 4-------------------- 4----|------11------------------------|
A| 2------------------------------|---------------------------- 0--|
E|------------------------------ 9|--------------------------------|
http://classicalguitartablature.blogspot.com/
E|----------12----11--------------| 7-------------------- 4--------|
B|----12----------12--12---- 9----| 5-------------- 5--------------|
G|---- 9-------- 9---- 9----------| 4---------- 4------ 4----------|
D|----11--------------11----------|-------- 6------------------ 6--|
A|-------------- 0----------------|--------------------------------|
E|--------------------------------| 0------------------------------|
http://classicalguitartablature.blogspot.com/
E|---- 5---- 4---- 2--------------|---------------- 0--------------|
B| 7-------------- 5-- 5---- 4----| 0------------------------------|
G| 6------------ 2---- 2----------| 1-------------------------- 1--|
D| 7---------------------------- 4|-------- 4-------------- 4------|
A| 0------------ 2----------------|------------------------------ 2|
E|------------------------------ 0|--------------------------------|
http://classicalguitartablature.blogspot.com/
E|---------------------- 2--------|--------------------------------|
B|-------------- 4-------------- 5|--------------------------------|
G|---------- 4------------------ 6|-------------- 6----------------|
D|------ 4------------------------|------ 6------------------------|
A|------------------------------ 4|---------------------- 4------ 0|
E|--------------------------------|--------------------------------|
http://classicalguitartablature.blogspot.com/
E|---------------- 2--------------| 4------------------------------|
B|------------ 2------------------| 5------------ 5----------------|
G|---------- 2------------ 2------|------------ 4------ 4------ 4--|
D|------ 2------------------------|-------- 6-------------- 6------|
A|--------------------------------|--------------------------------|
E|--------------------------------| 0------------------------------|
http://classicalguitartablature.blogspot.com/
E|-------------- 2---- 5---- 4----|----------------------12------11|
B|------------ 4------------------|-------------- 9--------------12|
G|------ 2------------------------| 9-------- 9------ 9---------- 9|
D|---- 4-------------------- 4----|------11------------------------|
A| 2------------------------------|---------------------------- 0--|
E|------------------------------ 9|--------------------------------|
http://classicalguitartablature.blogspot.com/
E|----------12----11--------------| 7-------------------- 4--------|
B|----12----------12--12---- 9----| 5-------------- 5--------------|
G|---- 9-------- 9---- 9----------| 4---------- 4------ 4----------|
D|----11--------------11----------|-------- 6------------------ 6--|
A|-------------- 0----------------|--------------------------------|
E|--------------------------------| 0------------------------------|
http://classicalguitartablature.blogspot.com/
E| 9--------------11--------------|12------------------------------|
B|10----------10-------------- 7--| 8-------------------------- 8--|
G|-------- 9-------------- 8------| 9---------------------- 9------|
D|----11-------------- 7----------|--------------------10----------|
A| 0------------------------------|--------------------------------|
E|-------------- 7----------------|---------------- 8--------------|
http://classicalguitartablature.blogspot.com/
E|--------------------------------|--------------------------------|
B|------------ 3------------------|---------------------------- 0--|
G|------ 2------------------------|---------------------- 0--------|
D|---- 4--------------------------|-------------------- 0----------|
A| 5------------------------------|--------------------------------|
E|--------------------------------|---------------- 3--------------|
http://classicalguitartablature.blogspot.com/
E|--------------------------------|---------------- 0--------------|
B|------------ 2------------------|---------------- 0--------------|
G|-------- 2----------------------|---------------- 1--------------|
D|---- 2--------------------------|-------------------- 4----------|
A| 0------------------------------|-------------------- 2----------|
E|--------------------------------|-------------- 0----------------|
http://classicalguitartablature.blogspot.com/
E|--------------------------------|--------------------------------|
B|--------------------------------|--------------------------------|
G|--------------------------------|--------------------------------|
D|--------------------------------|--------------------------------|
A|--------------------------------|--------------------------------|
E|--------------------------------|--------------------------------|
http://classicalguitartablature.blogspot.com/

0 ความคิดเห็น:

แสดงความคิดเห็น