To celebrate the anniversary, I am giving you (finally...) : iPhone LickByNeck !!!!!!

Don't Worry Be Happy (BASIC)

Bobby McFerrin's tune fingerstyle chord melody guitar BASIC arrangement played in the key of C.

Don't Worry Be Happy-Bobby McFerrin-BASIC ARRANGEMENT played in the key of C.
http://classicalguitartablature.blogspot.com/
E|--------------------------------|--------------------------------|
B|-------- 5---- 5-------- 5-- 5--|-------- 5---- 5-------- 5-- 5--|
G|-------- 5-- 5---------- 5-- 5--|-------- 5---- 5-------- 5-- 5--|
D|-------- 5---- 5-------- 5-- 5--|-------- 5---- 5-------- 5-- 5--|
A|--------------------------------|--------------------------------|
E|--------------------------------|--------------------------------|
http://classicalguitartablature.blogspot.com/
E|--------------------------------|--------------------------------|
B|-------- 5-- 5---------- 5-- 5--|-------- 5---- 5-------- 5-- 5--|
G|-------- 5-- 5---------- 5-- 5--|-------- 5---- 5-------- 5-- 5--|
D|-------- 5-- 5---------- 5-- 5--|-------- 5---- 5-------- 5-- 5--|
A| 3------------------------------|---------------- 0---------- 7--|
E|-------- 5------ 3--------------|--------------------------------|
http://classicalguitartablature.blogspot.com/
http://classicalguitartablature.blogspot.com/
E|--------------------------------|--------------------------------|
B|-------- 3-- 3---------- 3------|-------- 3-- 3-------- 3---- 3--|
G|-------- 5-- 5---------- 5-- 5--|-------- 5-- 5-------- 5---- 5--|
D|-------- 3-- 3---------- 3-- 3--|-------- 3-- 3---------- 3-- 3--|
A| 5-- 5-- 5------ 0--------------|---------------- 3--------------|
E|--------------------------------|---------------------------- 3--|
http://classicalguitartablature.blogspot.com/
E|--------------------------------|--------------------------------|
B|-------- 1-- 1---------- 1-- 1--|-------- 1-- 1-------- 1---- 1--|
G|-------- 2-- 2---------- 2-- 2--|-------- 2-- 2-------- 2---- 2--|
D|-------- 3-- 3---------- 3-- 3--|-------- 3-- 3---------- 3-- 3--|
A|-------- 0------ 3--------------|-------------------- 0-- 3-- 0--|
E| 1---------- 1------------------|-------------- 3----------------|
http://classicalguitartablature.blogspot.com/
E|--------------------------------|--------------------------------|
B|------ 5---- 5------------------|-------- 5-- 5---------- 5-- 5--|
G|------ 5---- 5----------12--12--|-------- 5-- 5---------- 5-- 5--|
D|------ 5---- 5----------10--10--|-------- 5-- 5---------- 5-- 5--|
A| 3---- 0----------------12------|10------ 7------ 5-- 5-- 3-- 0--|
E|-------------- 3----------------|--------------------------------|
http://classicalguitartablature.blogspot.com/
E| 8-------------- 5------ 3------| 5------------------------------|
B| 5------ 5-- 5---------- 5------|-------- 5------ 8-- 5----------|
G| 5------ 5-- 5---------- 5-- 5--|-------- 5-- 5---------- 7-- 5--|
D|-------- 5-- 5---------- 5-- 5--|-------- 5-- 5---------- 5-- 5--|
A|--------------------------------|---------------- 0---------- 7--|
E| 8------ 5------ 3--------------|------------ 3------------------|
http://classicalguitartablature.blogspot.com/
E|--------------------------------|---------------- 3--------------|
B| 3-- 5-- 3-------------- 3-- 3--|-------- 3---- 3---- 5-- 3------|
G|-------- 5-- 5---------- 5-- 5--|-------- 5---- 5-------- 5-- 5--|
D|-------- 3-- 3---------- 3-- 3--|-------- 3---- 3-------- 3-- 3--|
A| 5-- 5-- 5------ 0--------------|---------------- 3--------------|
E|--------------------------------|------------------------------ 3|
http://classicalguitartablature.blogspot.com/
E|---- 0--------------------------|--------------------------------|
B| 3------ 3-------------- 1-- 1--|-------- 1-- 1-- 5-- 3-- 1------|
G| 2------ 2-- 2---------- 2-- 2--|-------- 2-- 2---------- 2-- 2--|
D| 3------ 3-- 3---------- 3-- 3--|-------- 3-- 3---------- 3-- 3--|
A|-------- 0------ 3--------------|-------------- 0-------- 3-- 0--|
E| 1------------ 1----------------|---------------- 3-- 5----------|
http://classicalguitartablature.blogspot.com/
E|--------------------------------|--------------------------------|
B| 1------------------------------|-------- 5-- 5---------- 5-- 5--|
G| 0---- 0---- 0----------12--12--|-------- 5-- 5---------- 5-- 5--|
D| 2---- 2---- 2----------10--10--|-------- 5-- 5---------- 5-- 5--|
A| 3------ 0--------------12------|10------ 7------ 5-- 5-- 3-- 0--|
E|---------------- 3--------------|--------------------------------|
http://classicalguitartablature.blogspot.com/
E|------ 0-------- 0------ 0------|------------ 3------------------|
B|------ 1---- 3-- 1-- 3-- 1---- 3| 5-- 5------ 5---------- 5------|
G|------ 0---- 0 0---- 0-- 0---- 0|-------- 5-------------- 5-- 5--|
D|------------ 2---------------- 2|-------- 5 5------------ 5-- 5--|
A| 3------ 0----------------------|---------------- 0---------- 7--|
E|---------------- 3--------------|------------ 3------------------|
http://classicalguitartablature.blogspot.com/
E|---------------------------- 3--|--------------------------------|
B| 3-- 3-- 3------ 3--------------|-------------------- 5----------|
G|-------- 5-- 5------ 5----------|---- 5------ 5---------- 5-- 5--|
D|---------- 3 3---------- 3-- 3--|-------- 3---------- 3-- 3-- 3--|
A| 5-- 5-- 5------ 0--------------|------------ 0 3----------------|
E|--------------------------------|------------------------ 3------|
http://classicalguitartablature.blogspot.com/
E|--------------------------------|------------------------ 0------|
B| 1-- 1------------------ 1---- 1|-------- 1-- 1---------- 1------|
G|-------- 2-- 2---------- 2-- 2--|-------- 2-- 2---------- 2-- 2--|
D|-------- 3-- 3---------- 3---- 3|-------- 3---- 2------------ 3--|
A|-------- 0------ 3--------------|-------------------- 0-- 3-- 0--|
E| 1---------- 1------------------|---------------- 3--------------|
http://classicalguitartablature.blogspot.com/
E|--------------------------------|--------------------------------|
B| 1-- 1--------------------------|-------- 5-- 5---------- 5-- 5--|
G| 0-- 0-- 0-- 0----------12--12--|-------- 5-- 5---------- 5-- 5--|
D| 2-- 2-- 2-- 2----------10--10--|-------- 5-- 5---------- 5-- 5--|
A| 3------ 0--------------12------|10------ 7------ 5-- 5-- 3-- 0--|
E|---------------- 3--------------|--------------------------------|
http://classicalguitartablature.blogspot.com/
E| 8---- 7------ 5---- 3------ 5--|------------ 3------------------|
B|------ 5---- 5---------- 5-- 5--|---- 5------ 5---------- 5------|
G|------ 5---------------- 5-- 5--|-------- 5-- 5---------- 5-- 5--|
D|------ 5---- 5---------- 5-- 5--|-------- 5-------------- 5-- 5--|
A|--------------------------------|---------------- 0---------- 7--|
E| 8------ 5------ 3--------------|------------ 3------------------|
http://classicalguitartablature.blogspot.com/
E|---------------------------- 3--|--------------------------------|
B| 3-- 3-- 3------ 3--------------|-------------------- 5----------|
G|-------- 5-- 5------ 5----------|---- 5------ 5---------- 5-- 5--|
D|---------- 3 3---------- 3-- 3--|-------- 3---------- 3-- 3-- 3--|
A| 5-- 5-- 5------ 0--------------|------------ 0 3----------------|
E|--------------------------------|------------------------ 3------|
http://classicalguitartablature.blogspot.com/
E|--------------------------------|------------------------ 0------|
B| 1-- 1------------------ 1---- 1|-------- 1-- 1---------- 1------|
G|-------- 2-- 2---------- 2-- 2--|-------- 2-- 2---------- 2-- 2--|
D|-------- 3-- 3---------- 3---- 3|-------- 3---- 2------------ 3--|
A|-------- 0------ 3--------------|-------------------- 0-- 3-- 0--|
E| 1---------- 1------------------|---------------- 3--------------|
http://classicalguitartablature.blogspot.com/
E|--------------------------------|--------------------------------|
B| 1-- 1--------------------------|-------- 5-- 5---------- 5-- 5--|
G| 0-- 0-- 0-- 0----------12--12--|-------- 5-- 5---------- 5-- 5--|
D| 2-- 2-- 2-- 2----------10--10--|-------- 5-- 5---------- 5-- 5--|
A| 3------ 0--------------12------|10------ 7------ 5-- 5-- 3-- 0--|
E|---------------- 3--------------|--------------------------------|
http://classicalguitartablature.blogspot.com/
E| 8-------------- 5------ 3------| 5------------------------------|
B| 5------ 5-- 5---------- 5------|-------- 5------ 8-- 5----------|
G| 5------ 5-- 5---------- 5-- 5--|-------- 5-- 5---------- 7-- 5--|
D|-------- 5-- 5---------- 5-- 5--|-------- 5-- 5---------- 5-- 5--|
A|--------------------------------|---------------- 0---------- 7--|
E| 8------ 5------ 3--------------|------------ 3------------------|
http://classicalguitartablature.blogspot.com/
E|--------------------------------|---------------- 3--------------|
B| 3-- 5-- 3-------------- 3-- 3--|-------- 3---- 3---- 5-- 3------|
G|-------- 5-- 5---------- 5-- 5--|-------- 5---- 5-------- 5-- 5--|
D|-------- 3-- 3---------- 3-- 3--|-------- 3---- 3-------- 3-- 3--|
A| 5-- 5-- 5------ 0--------------|---------------- 3--------------|
E|--------------------------------|------------------------------ 3|
http://classicalguitartablature.blogspot.com/
E|---- 0--------------------------|--------------------------------|
B| 3------ 3-------------- 1-- 1--|-------- 1-- 1-- 5-- 3-- 1------|
G| 2------ 2-- 2---------- 2-- 2--|-------- 2-- 2---------- 2-- 2--|
D| 3------ 3-- 3---------- 3-- 3--|-------- 3-- 3---------- 3-- 3--|
A|-------- 0------ 3--------------|-------------- 0-------- 3-- 0--|
E| 1------------ 1----------------|---------------- 3-- 5----------|
http://classicalguitartablature.blogspot.com/
E|--------------------------------|--------------------------------|
B| 1------------------------------|-------- 5-- 5---------- 5-- 5--|
G| 0---- 0---- 0----------12--12--|-------- 5-- 5---------- 5-- 5--|
D| 2---- 2---- 2----------10--10--|-------- 5-- 5---------- 5-- 5--|
A| 3------ 0--------------12------|10------ 7------ 5-- 5-- 3-- 0--|
E|---------------- 3--------------|--------------------------------|
http://classicalguitartablature.blogspot.com/
E| 8-------------- 5------ 3------| 5------------------------------|
B| 5------ 5-- 5---------- 5------|-------- 5------ 8-- 5----------|
G| 5------ 5-- 5---------- 5-- 5--|-------- 5-- 5---------- 7-- 5--|
D|-------- 5-- 5---------- 5-- 5--|-------- 5-- 5---------- 5-- 5--|
A|--------------------------------|---------------- 0---------- 7--|
E| 8------ 5------ 3--------------|------------ 3------------------|
http://classicalguitartablature.blogspot.com/
E|--------------------------------|---------------- 3--------------|
B| 3-- 5-- 3-------------- 3-- 3--|-------- 3---- 3---- 5-- 3------|
G|-------- 5-- 5---------- 5-- 5--|-------- 5---- 5-------- 5-- 5--|
D|-------- 3-- 3---------- 3-- 3--|-------- 3---- 3-------- 3-- 3--|
A| 5-- 5-- 5------ 0--------------|---------------- 3--------------|
E|--------------------------------|------------------------------ 3|
http://classicalguitartablature.blogspot.com/
E|---- 0--------------------------|--------------------------------|
B| 3------ 3-------------- 1-- 1--|-------- 1-- 1-- 5-- 3-- 1------|
G| 2------ 2-- 2---------- 2-- 2--|-------- 2-- 2---------- 2-- 2--|
D| 3------ 3-- 3---------- 3-- 3--|-------- 3-- 3---------- 3-- 3--|
A|-------- 0------ 3--------------|-------------- 0-------- 3-- 0--|
E| 1------------ 1----------------|---------------- 3-- 5----------|
http://classicalguitartablature.blogspot.com/
E|--------------------------------|--------------------------------|
B| 1------------------------------|-------- 5-- 5---------- 5-- 5--|
G| 0---- 0---- 0----------12--12--|-------- 5-- 5---------- 5-- 5--|
D| 2---- 2---- 2----------10--10--|-------- 5-- 5---------- 5-- 5--|
A| 3------ 0--------------12------|10------ 7------ 5-- 5-- 3-- 0--|
E|---------------- 3--------------|--------------------------------|
http://classicalguitartablature.blogspot.com/
E|--------------------------------|--------------------------------|
B| 1------------------------------|--------------------------------|
G| 0------------------------------|--------------------------------|
D| 2------------------------------|--------------------------------|
A| 3------------------------------|--------------------------------|
E|--------------------------------|--------------------------------|
http://classicalguitartablature.blogspot.com/

0 ความคิดเห็น:

แสดงความคิดเห็น