To celebrate the anniversary, I am giving you (finally...) : iPhone LickByNeck !!!!!!

Harlem Nocturne (BASIC)

The Ventures' tune fingerstyle chord melody guitar BASIC arrangement played in the key of Em.

Harlem Nocturne-The Ventures-BASIC ARRANGEMENT played In the key of Em.
http://classicalguitartablature.blogspot.com/
E|--------------------------------|--------------------------------|
B|-------- 0----------------------|--------------------------------|
G|-------- 0----------------------|-------- 0----------------------|
D|---- 2-------------- 2----------|---- 2-------------- 2----------|
A|---------------- 2---------- 2--|---------------- 2---------- 2--|
E| 0---------- 3---------- 3------| 0---------- 3---------- 3------|
http://classicalguitartablature.blogspot.com/
E|--------------------------------|------------ 0-- 2------ 3------|
B|-------- 0----------------------|------------ 0------------------|
G|-------- 0----------------------|---------- 0--------------------|
D|------ 2------------ 2----------|-------- 2----------------------|
A|---------------- 2---------- 2--|------ 2------------------------|
E| 0---------- 3---------- 3------| 0------------------------------|
http://classicalguitartablature.blogspot.com/
http://classicalguitartablature.blogspot.com/
E|--------------------------------|---- 0--------------------------|
B| 4------------------------------|------------ 0---------------- 0|
G| 0------ 0----------------------|---------------- 0-------- 0----|
D|---- 2-------------- 2----------|-------------------- 2----------|
A|---------------- 2---------- 2--|-------------- 2------------ 2 0|
E| 0---------- 3-------- 3--------| 0---------- 3-------- 3--------|
http://classicalguitartablature.blogspot.com/
E|--------------------------------|------------ 5 7-------- 8------|
B|--------------------------------|---------- 5--------------------|
G|--------------------------------|------ 5------------------------|
D|---- 2------ 7------------------|---- 7--------------------------|
A|---------------- 7---------- 7--| 0------------ 7------------ 7 0|
E|------------ 8-------- 8--------|------------ 8-------- 8--------|
http://classicalguitartablature.blogspot.com/
E|--------------------------------|---- 5--------------------------|
B| 9------------------------------|-------- 5------------ 7--------|
G| 9------ 9----------------------|---------- 5--------------------|
D|10----10------------10----------|-------------- 7---- 7----------|
A|---------------- 7---------- 7--|------------ 6 9-------- 6-- 9--|
E|------------ 8---------- 8------| 7------------------------------|
http://classicalguitartablature.blogspot.com/
E| 0------------------------------| 0------------ 2-------- 3------|
B|--------------------------------| 0---------- 0------------------|
G|------ 0------------------------| 0-------- 0--------------------|
D|---- 2-------------- 2----------|------ 2------------------------|
A|-------------- 2------------ 2--|---- 2--------------------------|
E| 0---------- 3---------- 3------| 0------------------------------|
http://classicalguitartablature.blogspot.com/
E|--------------------------------|---- 0--------------------------|
B| 4------------------------------|------------ 0---------------- 0|
G| 0------ 0----------------------|---------------- 0-------- 0----|
D|---- 2-------------- 2----------|-------------------- 2----------|
A|---------------- 2---------- 2--|-------------- 2------------ 2 0|
E| 0---------- 3-------- 3--------| 0---------- 3-------- 3--------|
http://classicalguitartablature.blogspot.com/
E|--------------------------------|------------ 5 7-------- 8------|
B|--------------------------------|---------- 5--------------------|
G|--------------------------------|------ 5------------------------|
D|---- 2------ 7------------------|---- 7--------------------------|
A|---------------- 7---------- 7--| 0------------ 7------------ 7 0|
E|------------ 8-------- 8--------|------------ 8-------- 8--------|
http://classicalguitartablature.blogspot.com/
E|--------------------------------|---- 5--------------------------|
B| 9------------------------------|-------- 5------ 0------ 7------|
G| 9------ 9----------------------|------------ 5-- 2--------------|
D|10----10------------10----------|-------------------- 1----------|
A|---------------- 7---------- 7--|------------ 6---------- 6-- 9--|
E|------------ 8---------- 8------| 7-------------- 2--------------|
http://classicalguitartablature.blogspot.com/
E| 0------------------------------|---------------- 7-- 6-- 5-- 4--|
B|--------------------------------| 0------------------------------|
G|------ 0------------------------| 0------------------------------|
D|---- 2-------------- 2-------- 2|--------------------------------|
A|-------------- 2------------ 2--|--------------------------------|
E| 0---------- 3---------- 3---- 0|--------------------------------|
http://classicalguitartablature.blogspot.com/
E| 3------ 0-- 1-------------- 5--| 3------ 0-- 1----------10-- 8--|
B| 3-- 3-- 0-- 1-------------- 6--| 3-- 3-- 0-- 1----------10--10--|
G| 4-- 4-- 0-- 0-------------- 5--| 4-- 4-- 0-- 0----------10--10--|
D|---- 5--------------------------|---- 5--------------------------|
A|-------- 2-- 2---------- 0-- 0--|-------- 2-- 2---------- 0-- 0--|
E| 3-------------- 1-- 1----------| 3-------------- 1-- 1----------|
http://classicalguitartablature.blogspot.com/
E| 7---------- 1------------------|------------------------------ 8|
B| 8-- 8-- 3-- 1---------- 3-- 1--|---- 3------------------------ 8|
G| 7-- 7-- 0-------------- 2-- 2--| 3-------- 5-- 6---- 7---- 8-- 9|
D|---- 9-- 0-------------- 3-- 3--| 5-- 5---- 6-- 7---- 8---- 9----|
A|10--10-- 2-- 2---------- 0-- 0--|--------------------------------|
E|---------------- 1-- 1----------| 3-- 3---- 4-- 5---- 6---- 7-- 8|
http://classicalguitartablature.blogspot.com/
E|------ 5---- 6--------------10 8|------ 5---- 6------------------|
B|---- 8 5---- 6--------------11 8|---- 8 5---- 6--------------13--|
G|---- 9----------------------10 9|---- 9----------------------10--|
D|----10--------------------------|----10----------------------12--|
A|-------- 7-- 7------------------|-------- 7-- 7------------------|
E|---- 8---------- 6-- 6--10--10 8|---- 8---------- 6-- 6--10--10--|
http://classicalguitartablature.blogspot.com/
E|10------ 8------ 6------ 4------|---------------------- 2-- 3 5--|
B|---- 8------ 6------ 4------ 2--| 7------ 5------ 3-- 5----------|
G|--------------------------------|---- 4------ 2------------------|
D|--------------------------------|--------------------------------|
A|--------------------------------|--------------------------------|
E| 8------------------------------|--------------------------------|
http://classicalguitartablature.blogspot.com/
E| 3------ 0-- 1-------------- 5--| 3------ 0-- 1----------10-- 8--|
B| 3-- 3-- 0-- 1-------------- 6--| 3-- 3-- 0-- 1----------10--10--|
G| 4-- 4-- 0-- 0-------------- 5--| 4-- 4-- 0-- 0----------10--10--|
D|---- 5--------------------------|---- 5--------------------------|
A|-------- 2-- 2---------- 0-- 0--|-------- 2-- 2---------- 0-- 0--|
E| 3-------------- 1-- 1----------| 3-------------- 1-- 1----------|
http://classicalguitartablature.blogspot.com/
E| 7---------- 1------------------|------------------------------ 8|
B| 8-- 8-- 3-- 1---------- 3-- 1--|---- 3------------------------ 8|
G| 7-- 7-- 0-------------- 2-- 2--| 3-------- 5-- 6---- 7---- 8-- 9|
D|---- 9-- 0-------------- 3-- 3--| 5-- 5---- 6-- 7---- 8---- 9----|
A|10--10-- 2-- 2---------- 0-- 0--|--------------------------------|
E|---------------- 1-- 1----------| 3-- 3---- 4-- 5---- 6---- 7-- 8|
http://classicalguitartablature.blogspot.com/
E|------ 5---- 6--------------10 8|------ 5---- 6------------------|
B|---- 8 5---- 6--------------11 8|---- 8 5---- 6--------------13--|
G|---- 9----------------------10 9|---- 9----------------------10--|
D|----10--------------------------|----10----------------------12--|
A|-------- 7-- 7------------------|-------- 7-- 7------------------|
E|---- 8---------- 6-- 6--10--10 8|---- 8---------- 6-- 6--10--10--|
http://classicalguitartablature.blogspot.com/
E|10------ 8------ 6------ 4------|--------------------------------|
B|---- 8------ 6------ 4------ 2--| 7------ 5----------------------|
G|--------------------------------|---- 4------ 2-- 7------ 5------|
D|--------------------------------|-------------------- 5------ 3--|
A|--------------------------------|--------------------------------|
E| 8------------------------------|--------------------------------|
http://classicalguitartablature.blogspot.com/
E|--------------------------------|------------ 0-- 2------ 3------|
B|--------------------------------|------------ 0------------------|
G|-------- 0----------------------|---------- 0--------------------|
D|---- 2-------------- 2----------|-------- 2----------------------|
A|---------------- 2---------- 2--|------ 2------------------------|
E| 0---------- 3---------- 3------| 0------------------------------|
http://classicalguitartablature.blogspot.com/
E|--------------------------------|---- 0--------------------------|
B| 4------------------------------|------------ 0---------------- 0|
G| 0------ 0----------------------|---------------- 0-------- 0----|
D|---- 2-------------- 2----------|-------------------- 2----------|
A|---------------- 2---------- 2--|-------------- 2------------ 2 0|
E| 0---------- 3-------- 3--------| 0---------- 3-------- 3--------|
http://classicalguitartablature.blogspot.com/
E|--------------------------------|------------ 5 7-------- 8------|
B|--------------------------------|---------- 5--------------------|
G|--------------------------------|------ 5------------------------|
D|---- 2------ 7------------------|---- 7--------------------------|
A|---------------- 7---------- 7--| 0------------ 7------------ 7 0|
E|------------ 8-------- 8--------|------------ 8-------- 8--------|
http://classicalguitartablature.blogspot.com/
E|--------------------------------|---- 5--------------------------|
B| 9------------------------------|-------- 5------------ 7--------|
G| 9------ 9----------------------|---------- 5--------------------|
D|10----10------------10----------|-------------- 7---- 7----------|
A|---------------- 7---------- 7--|------------ 6 9-------- 6-- 9--|
E|------------ 8---------- 8------| 7------------------------------|
http://classicalguitartablature.blogspot.com/
E| 0------------------------------|------------ 5-- 7------ 8------|
B|--------------------------------|---------- 5--------------------|
G|------ 0------------------------|-------- 5----------------------|
D|---- 2-------------- 2----------|---- 7--------------------------|
A|-------------- 2------------ 2--|------------------------------ 0|
E| 0---------- 3---------- 3------| 0---------- 5-- 8---- 5---- 8--|
http://classicalguitartablature.blogspot.com/
E|--------------------------------|------ 5------------------------|
B| 9------------------------------|---------- 5-------------- 0----|
G| 9------ 9----------------------|---------------- 5------ 2------|
D|10----10------------10----------|------------------------ 1------|
A|---------------- 7---------- 7--|---------------- 6--------------|
E|------------ 8---------- 8------| 7---------------------- 2------|
http://classicalguitartablature.blogspot.com/
E|---------------------------- 2--|--------------------------------|
B|---------------------------- 3--|--------------------------------|
G|---------------------------- 2--|--------------------------------|
D|--------------------------------|--------------------------------|
A|--------------------------------|--------------------------------|
E|-------------------------- 1----|--------------------------------|
http://classicalguitartablature.blogspot.com/
E|--------------------------------| 0------------------------------|
B|--------------------------------| 0------------------------------|
G|------------------------------ 0|-------- 0----------------------|
D|--------------------------------|---- 2-------------- 2----------|
A|--------------------------------|---------------- 2---------- 2--|
E|------------------------------ 0|------------ 3---------- 3------|
http://classicalguitartablature.blogspot.com/
E|--------------------------------|--------------------------------|
B|--------------------------------|--------------------------------|
G| 2------ 2----------------------|-------- 0----------------------|
D|---- 2-------------- 7----------|---- 2-------------- 2----------|
A| 0---------- 3-- 7---------- 7--|---------------- 2---------- 2--|
E|------------------------ 8------| 0---------- 3---------- 3------|
http://classicalguitartablature.blogspot.com/
E| 0------------ 2-------- 3------|--------------------------------|
B| 0---------- 0------------------|-- 4----------------------------|
G| 0-------- 0--------------------| 5------------------------------|
D|------ 2------------------------| 4------------------------------|
A|---- 2--------------------------|--------------------------------|
E| 0---------------------------- 0|--------------------------------|
http://classicalguitartablature.blogspot.com/
E|--------------------------------|--------------------------------|
B|--------------------------------|--------------------------------|
G|--------------------------------|--------------------------------|
D|--------------------------------|--------------------------------|
A|--------------------------------|--------------------------------|
E|--------------------------------|--------------------------------|
http://classicalguitartablature.blogspot.com/

0 ความคิดเห็น:

แสดงความคิดเห็น