To celebrate the anniversary, I am giving you (finally...) : iPhone LickByNeck !!!!!!

I Will Always Love You (BASIC)

Whitney Houston / Lin Yu Chun's tune fingerstyle chord melody guitar BASIC arrangement played in the key of G.

I Will Always Love You-Whitney Houston-BASIC ARRANGEMENT played in the key of A.
http://classicalguitartablature.blogspot.com/
E|-------------------------- 0----|--------------------------------|
B|-------- 0-------------- 3------| 2------ 2-------------- 0 3----|
G| 2------------ 2 1--------------| 2------ 2-------------- 1 1----|
D|---- 0------ 0------ 0----------|---- 2-------------- 2-- 2------|
A|--------------------------------| 0---------- 0-- 0--------------|
E| 0-------------- 0--------------|--------------------------------|
http://classicalguitartablature.blogspot.com/
E|--------------------------------|-------------------------- 2----|
B| 2---------------------- 2------| 0---------- 2-- 0--------------|
G| 2------ 2-------------- 4------| 2-- 2-- 2---------- 2----------|
D|---- 2-- 2---------- 2------ 2--|------ 2-- 2-- 2-------- 2------|
A| 0---------- 0-- 0--------------|--------------------------------|
E|------------------------ 4------| 2-------------- 0--------------|
http://classicalguitartablature.blogspot.com/
http://classicalguitartablature.blogspot.com/
E| 2---------- 2 4-- 2 0-- 0------|------------------ 5------------|
B| 5---- 5-- 5-- 0------ 3------ 2|--------------------------------|
G|---- 2---------- 2------------ 2|-------- 2---------------- 2----|
D|---- 4--------------------------|---- 2------------------ 2------|
A| 5---------------------------- 0|---------- 0-- 0----------------|
E|-------------- 0----------------|--------------------------------|
http://classicalguitartablature.blogspot.com/
E|--------------------------------|-------------------------- 2----|
B| 2---------------------- 2------| 0---------- 2-- 0--------------|
G| 2------ 2-------------- 4------| 2-- 2-- 2---------- 2----------|
D|---- 2-- 2---------- 2------ 2--|------ 2-- 2-- 2-------- 2------|
A| 0---------- 0-- 0--------------|--------------------------------|
E|------------------------ 4------| 2-------------- 0--------------|
http://classicalguitartablature.blogspot.com/
E| 2---------- 2-- 4 2-------- 5--| 5------------------------------|
B| 5---- 5-- 5---- 3---- 5-- 3----| 2------ 2-------------- 2------|
G|---- 2---------- 4------ 4------|-------- 2------------ 2-- 2----|
D|---- 4-------------------- 2----|---- 2-------------- 2----------|
A| 5------------------------------| 0------------------------------|
E|---------------- 0--------------|------------ 4-- 2---------- 0--|
http://classicalguitartablature.blogspot.com/
E|------------ 5-- 4---- 5-- 7----| 5------------------------------|
B|-------- 2------ 3---- 3-- 5----| 2------ 2-------------- 2------|
G|------ 2-------- 4---- 4-- 6----|-------- 2------------ 2-- 2----|
D|---- 4--------------------------|---- 2-------------- 2----------|
A| 5------------------------------| 0------------------------------|
E|---------------- 0---- 2-- 4----|------------ 4-- 2---------- 0--|
http://classicalguitartablature.blogspot.com/
E|------------ 5-- 4---- 5-- 7----|---- 5--------------------------|
B|-------- 2------ 3---- 3-- 5----|---- 2-------- 2 3--------------|
G|------ 2-------- 4---- 4-- 6----|------------ 2---------- 2---- 2|
D|---- 4--------------------------|-------- 2---------- 2------ 2--|
A| 5------------------------------| 0------------------------------|
E|---------------- 0---- 2-- 4----|--------------------------------|
http://classicalguitartablature.blogspot.com/
E|-------------------------- 0----|--------------------------------|
B|---------- 0------------ 3------| 2------------------ 2---- 0 3--|
G|-------- 1---- 2----------------| 2------ 2---------- 2----------|
D|---- 0--------------------------|---- 2------------------ 2------|
A|--------------------------------| 0---------- 0-- 0--------------|
E| 0------------------------------|--------------------------------|
http://classicalguitartablature.blogspot.com/
E|---------------------- 2-- 2----|-------------------------- 2----|
B| 2---------------------- 2 2----| 0---------- 2-- 0--------------|
G| 2------ 2-------- 2---- 4 4----| 2-- 2-- 2---------- 2----------|
D|---- 2--------------------------|------ 2-- 2-- 2-------- 2------|
A| 0---------- 0-- 0--------------|--------------------------------|
E|------------------------ 4------| 2-------------- 0--------------|
http://classicalguitartablature.blogspot.com/
E| 2---------- 2 4-- 2---- 2 5 2--| 5------ 9---------- 2---- 0----|
B| 5---- 5-- 5-- 3---- 5 5 3------|---------------------------- 2--|
G|---- 2-------- 4----------------| 6------------ 6 1--------------|
D|---- 4--------------------------|---- 7---- 7---- 2------ 2------|
A| 5------------------------------| 0-------------- 0--------------|
E|-------------- 0----------------|--------------------------------|
http://classicalguitartablature.blogspot.com/
E| 0------------------------ 2 2--|---- 5------ 5 4-- 2------------|
B| 2 2 0---------------- 5 2------|---- 2---------- 2-- 5------ 2--|
G| 1------ 2---- 2------ 4--------|-------------- 2-------------- 2|
D|------------ 2------ 2-- 2------|-------- 2------------ 2--------|
A| 0-------------- 0--------------|------------------------------ 5|
E|------------------------ 4------| 2------------ 0----------------|
http://classicalguitartablature.blogspot.com/
E| 2---------- 2-- 4 2------------|---------------------------- 7--|
B| 2-------- 5---- 3 3 5----------|--------------------------------|
G|------ 2-------- 4--------------|--------------------------------|
D|---- 4---------------------- 2--| 2------------------------------|
A|--------------------------------|--------------------------------|
E|---------------- 0--------------|--------------------------------|
http://classicalguitartablature.blogspot.com/
E| 7-------------------------- 9 7|---------- 7---- 6-- 7---- 9-- 7|
B| 4------ 4-------------- 4------|-------- 5------ 2---- 5-- 7-- 4|
G|-------- 4-------------- 4------|-------- 4------ 3-- 4---- 6-- 4|
D|---- 4-------------- 6----------|---- 6--------------------------|
A|---------------------------- 9--|--------------------------------|
E| 7---------- 6-- 4--------------| 0-------------- 2---- 4-- 6-- 7|
http://classicalguitartablature.blogspot.com/
E|-------------------------- 9-- 7|---------- 7---- 6-- 7---- 9----|
B|------ 4---------------- 4------|-------- 5------ 2---- 5-- 7----|
G|------ 4---------------- 4------|-------- 4------ 3-- 4---- 6----|
D|---- 4------------ 6------------|---- 6--------------------------|
A|---------------------------- 9--|--------------------------------|
E|---------- 6-- 4----------------| 0-------------- 2---- 4-- 6----|
http://classicalguitartablature.blogspot.com/
E| 7-------- 9-- 7------------ 9 7|---------- 7-- 6 4 2-- 2------14|
B| 4------ 4-- 7 4-------- 4------| 5------ 5 5-- 2 2 2-- 2------12|
G|-------- 4---- 4-------- 4---- 4|-------- 4---- 3-- 3------------|
D|---- 4-------------- 6----------|---- 6-------------------- 2----|
A|---------------------------- 9--|------------------------------14|
E| 7---------- 6-- 4--------------| 0---------- 0 2-------- 2------|
http://classicalguitartablature.blogspot.com/
E|---------------------------- 9 7|---------- 7-- 6 4 2-- 2------14|
B|------12----------------12------| 5------ 5 5-- 2 2 2-- 2------12|
G|----11------------------11---- 4|-------- 4---- 3-- 3------------|
D|--------------------13----------|---- 6-------------------- 2----|
A|----------13--11------------ 9--|------------------------------14|
E|--------------------------------| 0---------- 0 2-------- 2------|
http://classicalguitartablature.blogspot.com/
E|---------------------------- 9 7|---------- 7-- 6 4 2-- 2--------|
B|------12----------------12------| 5------ 5 5-- 2 2 2-- 2--------|
G|----11------------------11---- 4|-------- 4---- 3-- 3---------- 4|
D|--------------------13----------|---- 6-------------------- 2----|
A|----------13--11------------ 9--|------------------------------ 7|
E|--------------------------------| 0---------- 0 2-------- 2------|
http://classicalguitartablature.blogspot.com/
E| 4------------------------ 4 6--| 6------------------------------|
B| 4---------- 4-------- 7--------| 7 9-- 7-------- 7---- 7------ 2|
G|-------- 4---------- 4----------| 6 6-- 6-------- 6-------- 8 6 1|
D|---- 6---------- 6-- 6----------|-- 8-- 8---- 8---- 8---------- 2|
A|--------------------------------| 6------------------------------|
E|--------------------------------|--------------------------------|
http://classicalguitartablature.blogspot.com/
E|--------------------------------|-------------------- 4------ 2--|
B| 4-- 2------ 2-- 4 2 4 2--------|------------------------ 4-- 2--|
G|---- 1---- 1------------ 4 1----|---------------------------- 3--|
D|---- 2-- 2-------------------- 4|--------------------------------|
A|--------------------------------|---------------------------- 2--|
E| 2------------------------------|--------------------------------|
http://classicalguitartablature.blogspot.com/
E|--------------------------------|--------------------------------|
B|-------- 2----------------------|--------------------------------|
G|---- 3--------------------------|--------------------------------|
D| 4------------------------------|--------------------------------|
A|--------------------------------|--------------------------------|
E|--------------------------------|--------------------------------|
http://classicalguitartablature.blogspot.com/

0 ความคิดเห็น:

แสดงความคิดเห็น