To celebrate the anniversary, I am giving you (finally...) : iPhone LickByNeck !!!!!!

Kiss Me Goodbye (BASIC)

Petula Clark's tune fingerstyle chord melody guitar BASIC arrangement played in the key of D.

Kiss Me Goodbye-Petula Clark-BASIC ARRANGEMENT played In the key of D.
http://classicalguitartablature.blogspot.com/
E|------------------------ 5------|-------- 2---- 0----------------|
B|---------------- 5--------------|---------- 3------------ 0------|
G|-------- 7-- 7------------------|--------------------------------|
D|---- 7--------------------------|---- 4--------------------------|
A| 5------------------------------| 5------------------------------|
E|--------------------------------|--------------------------------|
http://classicalguitartablature.blogspot.com/
E|------------------------ 5------|--------------------------------|
B|---------------- 5--------------|---------------- 0------ 0------|
G|-------- 7-- 7------------------|-------- 2-- 2------------------|
D|---- 7--------------------------|---- 4---------------------- 4--|
A| 5------------------------------| 5------------------------------|
E|--------------------------------|--------------------------------|
http://classicalguitartablature.blogspot.com/
http://classicalguitartablature.blogspot.com/
E|--------------------------------|-------- 2-------------- 5------|
B|---------------- 0---- 0--------|-------- 3------ 5--------------|
G|-------- 2-- 2------------------|------------ 2-- 2--------------|
D|---- 4-------------------- 4----|---- 4-------------- 2------ 2--|
A| 5------------------------------| 5-------------- 4--------------|
E|--------------------------------|--------------------------------|
http://classicalguitartablature.blogspot.com/
E|-------- 3 2--------------------|-------- 3-- 2------------------|
B|-------- 0------ 3--------------|-------- 3-- 3-- 3--------------|
G|---- 0---------- 2------ 2------|---------------- 2------ 2------|
D|-------------- 4---- 4------ 4--|---- 0-------------- 0------ 0--|
A| 2------------ 0----------------|--------------------------------|
E|--------------------------------| 3------------ 2----------------|
http://classicalguitartablature.blogspot.com/
E|---------- 0-- 0----------------|-------- 2-------------- 5------|
B| 3-------------------------- 0--|-------- 3------ 5--------------|
G|-------- 0-------------- 0------|------------ 2-- 2--------------|
D|---- 0-------------- 0----------|---- 4-------------- 2------ 2--|
A|---------------- 0--------------| 5-------------- 4--------------|
E| 0------------------------------|--------------------------------|
http://classicalguitartablature.blogspot.com/
E|-------- 3 2--------------------|-------- 3-- 2------------------|
B|-------- 0------ 3--------------|-------- 3-- 3-- 3--------------|
G|---- 0---------- 2------ 2------|---------------- 2------ 2------|
D|-------------- 4---- 4------ 4--|---- 0-------------- 0------ 0--|
A| 2------------ 0----------------|--------------------------------|
E|--------------------------------| 3------------ 2----------------|
http://classicalguitartablature.blogspot.com/
E|-------------- 0------------ 0--|--------------------------------|
B| 3---------- 3------------------| 3---------- 3-- 1---------- 1--|
G|-------- 0------------ 0--------|-------- 2-------------- 0------|
D|---- 0-------------- 0----------|---- 4-------------- 4----------|
A|---------------- 0--------------| 5-------------- 5--------------|
E| 0------------------------------|--------------------------------|
http://classicalguitartablature.blogspot.com/
E|--------------------------------| 3---------- 3 5-------- 7------|
B| 0---------- 0---------- 3------|--------------------------------|
G|-------- 2------ 2--------------|-------- 0----------------------|
D|---- 4-------------- 4------ 4--|---- 0-------------- 0------ 0--|
A| 5-------------- 5--------------|--------------------------------|
E|--------------------------------| 3-------------- 3--------------|
http://classicalguitartablature.blogspot.com/
E| 5-------- 5---------- 3-- 2----| 0-------- 0-- 2-------- 3------|
B| 3------ 3------------ 3-- 3----| 1-------------- 1--------------|
G|---- 2------------ 2------------|-------- 0-------- 0-------- 0--|
D|--------------------------------|---- 2--------------------------|
A|--------------------------------|--------------------------------|
E| 3-------------- 3--------------| 3-------------- 3--------------|
http://classicalguitartablature.blogspot.com/
E| 2---------------------- 0------|---------------------------- 0--|
B| 3---------- 3-------------- 3--| 1---------- 1------ 3----------|
G|-------- 2----------------------| 0------ 0---------- 0----------|
D|---- 0-------------- 0----------|---- 2-------------- 2-- 2------|
A|--------------------------------|--------------------------------|
E| 3-------------- 3--------------| 3-------------- 3--------------|
http://classicalguitartablature.blogspot.com/
E|--------------------------------|---------------------------- 0--|
B| 3---------- 3------ 1------ 0--|------------------------ 3------|
G|-------- 0-------- 0------------| 2------ 2-------------- 2------|
D|---- 0------------------ 0------|---- 4-------------- 4----------|
A|--------------------------------| 5---------- 0-- 5--------------|
E| 3-------------- 3--------------|--------------------------------|
http://classicalguitartablature.blogspot.com/
E| 2------------------------------| 5-------------- 7------ 8------|
B| 3---------- 3------------------| 5------ 5------ 5--------------|
G|-------- 2------ 2------ 2------|--------------------------------|
D|---- 4-------------- 4------ 4--|---- 5-------------- 5------ 5--|
A| 5---------- 0-- 5--------------| 0-------------- 0--------------|
E|--------------------------------|------------ 0------------------|
http://classicalguitartablature.blogspot.com/
E| 7---------------------- 5-- 3--| 2-------------- 3------ 5------|
B|-------- 5-------------- 5-- 5--| 3------ 3------ 3--------------|
G|---- 5-------------- 5-- 5-- 5--|-------------------- 2------ 2--|
D|--------------------------------|---- 4--------------------------|
A|--------------------------------|--------------------------------|
E| 3---------- 3-- 3--------------| 2---------- 2-- 2--------------|
http://classicalguitartablature.blogspot.com/
E| 3---------------------- 2-- 0--|--------------------------------|
B| 1------------------------------| 3-------------------------- 3--|
G|-------- 0----------------------| 2------ 2-------------- 2------|
D|---- 2-------------- 2----------|---- 4-------------- 4----------|
A|--------------------------------| 5---------- 0-- 5--------------|
E| 3---------- 3-- 3--------------|--------------------------------|
http://classicalguitartablature.blogspot.com/
E| 0------------------------------|-------------- 0-------- 0------|
B| 1------ 3----------------------| 0---- 0------------------------|
G|-------- 0------ 0------ 2------|---- 0--------------------------|
D|---- 2------ 2-- 4-- 4------ 4--|-- 0---------------- 0----------|
A| 0-------------- 5--------------|--------------------------------|
E|--------------------------------| 3---------- 3 3------------ 3--|
http://classicalguitartablature.blogspot.com/
E| 2-------------- 0------ 0------| 3---------- 3 5-------- 7------|
B|-------- 0------------------ 3--|--------------------------------|
G|------ 0------------------------|-------- 0----------------------|
D|---- 0-------------- 0----------|---- 0-------------- 0------ 0--|
A|--------------------------------|--------------------------------|
E| 3-------- 3---- 3---------- 3--| 3-------------- 3--------------|
http://classicalguitartablature.blogspot.com/
E| 5-------- 5---------- 3-- 2----| 0-------- 0-- 2-------- 3------|
B| 3------ 3------------ 3-- 3----| 1-------------- 1--------------|
G|---- 2------------ 2------------|-------- 0-------- 0-------- 0--|
D|--------------------------------|---- 2--------------------------|
A|--------------------------------|--------------------------------|
E| 3-------------- 3--------------| 3-------------- 3--------------|
http://classicalguitartablature.blogspot.com/
E| 2---------------------- 0------|---------------------------- 0--|
B| 3---------- 3-------------- 3--| 1---------- 1------ 3----------|
G|-------- 2----------------------| 0------ 0---------- 0----------|
D|---- 0-------------- 0----------|---- 2-------------- 2-- 2------|
A|--------------------------------|--------------------------------|
E| 3-------------- 3--------------| 3-------------- 3--------------|
http://classicalguitartablature.blogspot.com/
E|--------------------------------| 0------------------------------|
B| 3---------- 3------ 1------ 0--|-------- 1------ 0--------------|
G|-------- 0-------- 0------------|------ 0-------- 2------ 2------|
D|---- 0------------------ 0------|---- 2-------------- 2------ 2--|
A|--------------------------------| 3---------- 3-- 3--------------|
E| 3-------------- 3--------------|--------------------------------|
http://classicalguitartablature.blogspot.com/
E|--------------------------------|---------------- 0---- 2---- 3--|
B| 0------ 0----------------------|-------- 0------ 0---- 0---- 0--|
G| 0---- 0-------- 2------ 2------|------ 0---------- 0-- 0---- 0--|
D|---- 2-------------- 2------ 2--|---- 2--------------------------|
A| 3---------- 3-- 3--------------| 3---------- 3-- 3--------------|
E|--------------------------------|--------------------------------|
http://classicalguitartablature.blogspot.com/
E| 5------ 5----------------------|--------------------------------|
B|------ 5---------------- 5------| 3------ 3---- 3---- 5---- 7----|
G|-- 4---------------- 4------ 4--| 4---- 4------ 4---- 4---- 5----|
D|--------------------------------|---- 5-------- 5---- 5---- 7----|
A| 4---------- 4-- 4--------------| 5-------- 5-- 5------ 4---- 6--|
E|--------------------------------|--------------------------------|
http://classicalguitartablature.blogspot.com/
E| 3------------------------ 0----| 3------ 2-- 0------------------|
B|------ 0------------------------| 0------------------ 0---- 3----|
G|---- 0---------------- 0--------|---- 0-------------- 0---- 0----|
D|-- 0---------------- 0----------|-- 2---------------- 2---- 0----|
A|---------------- 5--------------| 3-------------- 3-- 3---- 2----|
E| 0-------- 0--------------------|--------------------------------|
http://classicalguitartablature.blogspot.com/
E|---------------- 5---- 3---- 2--| 3-------------- 0------ 0------|
B| 1------ 1------ 5---- 1---- 1--| 3------ 3-- 3------------------|
G| 0---- 0-------- 5---- 0---- 2--|------ 0------------------------|
D| 2-- 2---------------- 2--------|---- 0-------------- 0------ 0--|
A| 0---------- 0-- 5--------------|--------------------------------|
E|---------------------- 0---- 2--| 3-------------- 3--------------|
http://classicalguitartablature.blogspot.com/
E|-------------- 0------ 0---- 0--| 3------ 2-- 0------------------|
B|-------- 3-- 3------------------| 0------------------ 0---- 3----|
G|---- 0--------------------------|---- 0-------------- 0---- 0----|
D|-- 0---------------- 0----------|-- 2---------------- 2---- 0----|
A|--------------------------------| 3-------------- 3-- 3---- 2----|
E| 3-------------- 3--------------|--------------------------------|
http://classicalguitartablature.blogspot.com/
E|---------------- 5---- 3---- 2--| 3-------------- 5------ 7------|
B| 1------ 1------ 5---- 1---- 1--|-------- 0----------------------|
G| 0---- 0-------- 5---- 0---- 2--|------ 0------------------------|
D| 2-- 2---------------- 2--------|---- 0-------------- 0------ 0--|
A| 0---------- 0-- 5--------------|--------------------------------|
E|---------------------- 0---- 2--| 3---------- 3-- 3--------------|
http://classicalguitartablature.blogspot.com/
E| 5------ 5-------------- 3-- 2--| 0---------- 0---------------- 8|
B| 3-- 3------------------ 3-- 3--| 0---------------- 8----------10|
G|-- 2---------------- 2-- 2------|-------- 0-------- 5-------- 8--|
D|--------------------------------|---- 2------------ 7------------|
A|--------------------------------| 3-------------- 6---------- 9--|
E| 3---------- 3-- 3--------------|--------------------------------|
http://classicalguitartablature.blogspot.com/
E|--------------10----------------|--------------------------------|
B|------------10------------------|--------------------------------|
G|---------- 9--------------------|--------------------------------|
D|---------- 9--------------------|--------------------------------|
A|--------10----------------------|--------------------------------|
E|--------------------------------|--------------------------------|
http://classicalguitartablature.blogspot.com/

0 ความคิดเห็น:

แสดงความคิดเห็น