To celebrate the anniversary, I am giving you (finally...) : iPhone LickByNeck !!!!!!

Lovefool (BASIC)

The Cardigans' tune fingerstyle chord melody guitar BASIC arrangement played in the key of Am.

Lovefool-The Cardigans-BASIC ARRANGEMENT played In the key of E.
http://classicalguitartablature.blogspot.com/
E| 8---- 8-------------------- 8--|---- 8-------- 8------ 8------ 8|
B| 5------ 5------------------ 5--|---- 5-------- 5------ 5--------|
G| 5------ 5------------------ 5--|---- 5-------- 5------ 5--------|
D|--------------------------------|--------------------------------|
A| 0------ 0------------------ 0--|---- 0---------- 0------ 0------|
E|--------------------------------|--------------------------------|
http://classicalguitartablature.blogspot.com/
E|------ 8-------------------- 8--|---- 8---------- 8------ 8------|
B| 5---- 5-------------------- 5--|---- 5---------- 5------ 5------|
G| 5---- 5-------------------- 5--|---- 5---------- 5------ 5------|
D|--------------------------------|------------------------ 5------|
A| 0------ 0---------- 0------ 0--|---- 0------ 0-- 0------ 0------|
E|--------------------------------|--------------------------------|
http://classicalguitartablature.blogspot.com/
http://classicalguitartablature.blogspot.com/
E| 3------ 0-- 3---- 0------------|------------------------------ 1|
B| 1------ 1-- 1---- 1-------- 8--|---- 5---- 8-- 5----------------|
G| 0------ 0-- 0------ 0------ 5--|---- 5---- 5-- 5------ 7------ 0|
D|---------------------------- 7--|---- 7---- 7-- 7-------- 7------|
A| 0------ 0---------- 3------ 5--|---- 5---- 5-- 5------ 5--------|
E|--------------------------------|------------------------------ 3|
http://classicalguitartablature.blogspot.com/
E|------------ 1-------------- 1--|---- 0---- 1---- 0---------- 0--|
B| 3---- 3---- 3------ 3------ 1--|---- 1------ 1-- 1------ 1-- 1--|
G|------ 0---- 0------ 0------ 0--|---- 0---------- 0------ 0-- 0--|
D|-------- 0----------------------|------------------------ 0------|
A|-------------------- 2------ 3--|---- 3------ 3-- 3------ 2------|
E|------ 3------------------------|--------------------------------|
http://classicalguitartablature.blogspot.com/
E|-------------- 0---- 0----------|--------------------------------|
B|-------------- 1---- 1------ 5--|---- 3---- 5---- 3---- 0---- 3--|
G|-------------- 0---- 0------ 5--|---- 5------ 5-- 5---------- 0--|
D|---------------------------- 3--|---- 3------ 3-- 3---------- 0--|
A| 0------ 0------ 0-- 3------ 5--|---- 5------ 5-- 5--------------|
E|--------------------------------|--------------------------------|
http://classicalguitartablature.blogspot.com/
E|--------------------------------|--------------------------------|
B|------------ 0-- 3-- 0------ 1--|--------------------------------|
G|------------ 0-- 0-- 0------ 0--|------------ 0-- 0------ 0------|
D|------------ 0-- 0-- 0------ 2--|------------ 2-- 0------ 0------|
A|-------------------- 2----------| 3---------- 3-- 2------ 2------|
E| 3------ 3------ 3--------------|--------------------------------|
http://classicalguitartablature.blogspot.com/
E| 3------ 0-- 3---- 0------------|------------------------------ 1|
B| 1------ 1-- 1---- 1-------- 8--|---- 5---- 8-- 5----------------|
G| 0------ 0-- 0------ 0------ 5--|---- 5---- 5-- 5------ 7------ 0|
D|---------------------------- 7--|---- 7---- 7-- 7-------- 7------|
A| 0------ 0---------- 3------ 5--|---- 5---- 5-- 5------ 5--------|
E|--------------------------------|------------------------------ 3|
http://classicalguitartablature.blogspot.com/
E|------------ 1-------------- 1--|---- 0---- 1---- 0---------- 0--|
B| 3---- 3---- 3------ 3------ 1--|---- 1------ 1-- 1------ 1-- 1--|
G|------ 0---- 0------ 0------ 0--|---- 0---------- 0------ 0-- 0--|
D|-------- 0----------------------|------------------------ 0------|
A|-------------------- 2------ 3--|---- 3------ 3-- 3------ 2------|
E|------ 3------------------------|--------------------------------|
http://classicalguitartablature.blogspot.com/
E|-------------- 0---- 0----------|--------------------------------|
B|-------------- 1---- 1------ 5--|---- 3---- 5---- 3---- 0---- 3--|
G|-------------- 0---- 0------ 5--|---- 5------ 5-- 5---------- 0--|
D|---------------------------- 3--|---- 3------ 3-- 3---------- 0--|
A| 0------ 0------ 0-- 3------ 5--|---- 5------ 5-- 5--------------|
E|--------------------------------|--------------------------------|
http://classicalguitartablature.blogspot.com/
E|--------------------------------|--------------------------------|
B|------------ 0-- 3-- 0------ 1--|--------------------------------|
G|------------ 0-- 0-- 0------ 0--|------------ 0-- 3---------- 3--|
D|------------ 0-- 0-- 0------ 2--|------------ 2-- 2---------- 2--|
A|-------------------- 2----------| 3---------- 3-- 4---------- 4--|
E| 3------ 3------ 3--------------|--------------------------------|
http://classicalguitartablature.blogspot.com/
E|--------------------------------|-------------- 4----------------|
B| 3------------------------------| 5------ 7------ 5--------------|
G| 4------ 4------ 8------ 4------| 4------ 4------ 4--------------|
D| 3------ 3------ 7--------------| 6------ 6----------------------|
A| 5-------------- 6--------------|--------------------------------|
E|--------------------------------| 0-- 0-- 0-- 0-- 0-- 0-- 0-- 0--|
http://classicalguitartablature.blogspot.com/
E| 5------ 2-- 5-------------- 9--|---- 7---- 5---- 4--------------|
B| 2------ 2-- 7------ 7------ 7--|---- 7---- 7---- 5------ 5------|
G| 2------ 2-- 7------ 7------ 7--|---- 7---- 6---- 4------ 4------|
D|-------------------- 7----------|------------------------ 6------|
A| 0------ 4------ 5--------------|------------ 5------------------|
E|---------------------------- 7--|---- 7---------- 0------ 0------|
http://classicalguitartablature.blogspot.com/
E| 4---------- 4------------------|---------------------- 7--------|
B| 2------ 5-- 5------ 5------ 9--|----10---- 9----10------10------|
G| 2------ 2-- 6------ 6------ 7--|---- 7----11---- 7------ 7------|
D|-------- 2---------- 7------ 9--|---- 9---- 9---- 9--------------|
A| 0------ 4------ 5--------------|--------------------------------|
E|---------------------------- 7--|---- 7------10-- 0------ 0------|
http://classicalguitartablature.blogspot.com/
E| 5------ 2-- 5-------------- 9--|---- 7---- 5---- 4--------------|
B| 2------ 2-- 7------ 7------ 7--|---- 7---- 7---- 5------ 5------|
G| 2------ 2-- 7------ 7------ 7--|---- 7---- 6---- 4------ 4------|
D|-------------------- 7----------|------------------------ 6------|
A| 0------ 4------ 5--------------|------------ 5------------------|
E|---------------------------- 7--|---- 7---------- 0------ 0------|
http://classicalguitartablature.blogspot.com/
E| 4---------- 4------------------|---------------------- 7--------|
B| 2------ 5-- 5------ 5------ 9--|----10---- 9----10------10------|
G| 2------ 2-- 6------ 6------ 7--|---- 7----11---- 7------ 7------|
D|-------- 2---------- 7------ 9--|---- 9---- 9---- 9--------------|
A| 0------ 4------ 5--------------|--------------------------------|
E|---------------------------- 7--|---- 7------10-- 0------ 0------|
http://classicalguitartablature.blogspot.com/
E|---------------------------- 2--|--------------------------------|
B| 2---------- 2------ 5-- 6-- 3--|---- 3------ 3------ 3----------|
G| 2---------- 2-------------- 2--|---- 2------ 2------ 2----------|
D| 4---------- 4------------------|---- 4------ 4------ 4----------|
A|--------------------------------| 2---------- 2-------------- 2--|
E| 2---------- 2------------------|--------------------------------|
http://classicalguitartablature.blogspot.com/
E|-------------------- 2-- 1-- 0--|---- 0---- 0---- 2------ 4------|
B| 0-------- 0---------------- 2--|---- 2------ 2-- 3------ 5------|
G| 1---------- 1-------------- 2--|---- 2------ 2-- 2------ 4------|
D| 0---------- 0------------------|--------------------------------|
A|--------------------------------| 0---------- 0-- 5--------------|
E| 0---------- 0------------------|------------------------ 0------|
http://classicalguitartablature.blogspot.com/
E| 5------ 2-- 5-------------- 9--|---- 7---- 5---- 4--------------|
B| 2------ 2-- 7------ 7------ 7--|---- 7---- 7---- 5------ 5------|
G| 2------ 2-- 7------ 7------ 7--|---- 7---- 6---- 4------ 4------|
D|-------------------- 7----------|------------------------ 6------|
A| 0------ 4------ 5--------------|------------ 5------------------|
E|---------------------------- 7--|---- 7---------- 0------ 0------|
http://classicalguitartablature.blogspot.com/
E| 4---------- 4------------------|---------------------- 7--------|
B| 2------ 5-- 5------ 5------ 9--|----10---- 9----10------10------|
G| 2------ 2-- 6------ 6------ 7--|---- 7----11---- 7------ 7------|
D|-------- 2---------- 7------ 9--|---- 9---- 9---- 9--------------|
A| 0------ 4------ 5--------------|--------------------------------|
E|---------------------------- 7--|---- 7------10-- 0------ 0------|
http://classicalguitartablature.blogspot.com/
E| 5-------------- 5--------------|---------------- 4------ 7------|
B| 5------ 7------ 3------ 6------| 5------ 7------ 5------ 5------|
G| 6------ 6------ 4------ 4------| 4------ 4------ 4------ 4------|
D|---- 7---- 7-------- 3------ 3--| 6------ 6----------------------|
A| 0-------------- 5--------------|--------------------------------|
E|--------------------------------| 0-- 0-- 0-- 0-- 0-- 0-- 0-- 0--|
http://classicalguitartablature.blogspot.com/
E| 5------ 2-- 5-------------- 9--|---- 7---- 5---- 4--------------|
B| 2------ 2-- 7------ 7------ 7--|---- 7---- 7---- 5------ 5------|
G| 2------ 2-- 7------ 7------ 7--|---- 7---- 6---- 4------ 4------|
D|-------------------- 7----------|------------------------ 6------|
A| 0------ 4------ 5--------------|------------ 5------------------|
E|---------------------------- 7--|---- 7---------- 0------ 0------|
http://classicalguitartablature.blogspot.com/
E| 4---------- 4------------------|---------------------- 7--------|
B| 2------ 5-- 5------ 5------ 9--|----10---- 9----10------10------|
G| 2------ 2-- 6------ 6------ 7--|---- 7----11---- 7------ 7------|
D|-------- 2---------- 7------ 9--|---- 9---- 9---- 9--------------|
A| 0------ 4------ 5--------------|--------------------------------|
E|---------------------------- 7--|---- 7------10-- 0------ 0------|
http://classicalguitartablature.blogspot.com/
E| 5------ 2-- 5-------------- 9--|---- 7---- 5---- 4--------------|
B| 2------ 2-- 7------ 7------ 7--|---- 7---- 7---- 5------ 5------|
G| 2------ 2-- 7------ 7------ 7--|---- 7---- 6---- 4------ 4------|
D|-------------------- 7----------|------------------------ 6------|
A| 0------ 4------ 5--------------|------------ 5------------------|
E|---------------------------- 7--|---- 7---------- 0------ 0------|
http://classicalguitartablature.blogspot.com/
E| 5-------------- 5--------------|------------------------ 4------|
B| 5------ 7------ 3------ 6------|-- 5-------- 7---------- 5------|
G| 6------ 6------ 4------ 4------|-- 4-------- 4------------------|
D|---- 7---- 7-------- 3------ 3--| 6---- 6---------- 6---------- 6|
A| 0-------------- 5--------------|--------------------------------|
E|--------------------------------| 0------------------------------|
http://classicalguitartablature.blogspot.com/
E|---- 7--------------------------|------------ 5------------------|
B|---- 5--------------------------|------------ 7------------------|
G|--------------------------------|------------ 5------------------|
D|-------------- 6----------------|---------------------- 7--------|
A|--------------------------------|---------- 0--------------------|
E|--------------------------------|--------------------------------|
http://classicalguitartablature.blogspot.com/

0 ความคิดเห็น:

แสดงความคิดเห็น