To celebrate the anniversary, I am giving you (finally...) : iPhone LickByNeck !!!!!!

Nobody Does It Better - The Spy Who Loved Me (BASIC)

Carly Simon's tune fingerstyle chord melody guitar BASIC arrangement played in the key of G.

Nobody Does It Better-The Spy Who Loved Me-Carly Simon-BASIC ARRANGEMENT played in the key of G.
http://classicalguitartablature.blogspot.com/
E| 3------------------------------|--------------------------------|
B| 3---------- 3 0 2---- 2 1-- 1--| 0------------------------------|
G|-------- 0-------- 3------ 2----|-------- 0-- 2 1 0--------------|
D|---- 0-------------- 5------ 4--|---- 0-------- 3---- 3----------|
A|--------------------------------|---------------- 2-------- 0 1 2|
E| 3-------------- 3------ 3------| 3---------------------- 3------|
http://classicalguitartablature.blogspot.com/
E|-------- 2 0 2-- 3--------------|-------- 5------ 3------ 1------|
B| 1------ 0 0 0-- 4------ 4------| 0 3-------------------- 0------|
G| 0-------------- 2-- 2------ 0--| 0---------------------- 0------|
D|---- 2--------------------------| 0-- 0------ 0------ 0----------|
A| 3-------------- 3--------------|-------------------------- 0 1--|
E|--------------------------------| 3---------------------- 3------|
http://classicalguitartablature.blogspot.com/
http://classicalguitartablature.blogspot.com/
E|-------- 2 0 2-- 3-------- 5 3--|--------------------------------|
B| 1------ 0 0 0-- 4------ 4------| 0------------------------------|
G| 0------------------ 2----------| 0------ 2------ 0--------------|
D|---- 2--------------------------|---- 0------ 0------ 0-- 3------|
A| 3-------------- 3--------------|-------------------------- 0 1 2|
E|--------------------------------| 3---------------------- 3------|
http://classicalguitartablature.blogspot.com/
E|-------- 2 0 2------------------|---- 8------ 7 5-- 7 3----------|
B|-------- 0 0-- 0 8--10----------|---- 7---------------------- 0--|
G|------ 0 0 0-- 0 8---------- 8--|---- 8---------- 0-------- 0----|
D|---- 2---------- 7------ 7------|-------- 7-------------- 0------|
A| 3------------------------------|--------------------------------|
E|-------------- 8----------------| 7-------------- 0--------------|
http://classicalguitartablature.blogspot.com/
E|---------- 7------ 5------ 5-- 3|--------------------------------|
B|---------- 5------ 5-- 8-- 5----|---------- 3 0-- 2---- 2 1-- 1--|
G|-------- 5 5------ 5-- 5--------|------ 0---------- 3------ 2----|
D|---- 5------------------ 5------|-- 0---------------- 5------ 4--|
A| 0------------ 5----------------|--------------------------------|
E|--------------------------------| 3-------------- 3------ 3------|
http://classicalguitartablature.blogspot.com/
E|---------------- 5 3------------|--------------------------------|
B|-------- 0 3 0-- 0-------- 0----|-------------- 3-- 1------------|
G|------ 0-------- 0------ 0-- 0--|-- 0-- 0 0-- 0---------- 2-- 2--|
D|---- 0---------------- 3--------|-- 2-- 2 2------------ 1-- 1----|
A|---------------- 2--------------| 3-------------- 3--------------|
E| 3------------------------------|--------------------------------|
http://classicalguitartablature.blogspot.com/
E|-------------- 5-- 3-------- 3--|--------------------------------|
B|---- 0 0 0 3 0---- 0------ 0----| 4 5------ 5---- 4------ 4------|
G|---- 0 0 0 0------------ 0------| 6------ 6------ 5---- 5-- 5----|
D|---- 0 0 0 0-------- 3----------| 5---- 5---- 5 4---- 4-------- 4|
A|---------------- 2--------------|--------------------------------|
E| 3------------------------------| 5-------------- 4--------------|
http://classicalguitartablature.blogspot.com/
E|-------------- 5-- 3------------|------------------ 8------------|
B|---- 0 0 0 3 0---------- 0------|---- 8 8 810 8----------10------|
G|---- 0 0 0------------ 0-- 0----|---- 9 9 9 9 9------ 8---- 8----|
D|---- 0 0 0---------- 3-------- 3|----1010101010------10------10--|
A|---------------- 2--------------|--------------------------------|
E| 3------------------------------| 8-------------- 8--------------|
http://classicalguitartablature.blogspot.com/
E| 7------ 8------ 7------ 5-- 5 3|------------------ 0-- 1 1-- 2 3|
B| 7---- 7 6---- 6 5-- 8-- 5 8 5--|-------- 0 0 1 2 3 3------------|
G|---- 7------ 7-- 5------ 5 5 5--|------ 0-------- 0--------------|
D|-- 7------ 6------ 5-- 5-- 5----|---- 0---------- 0--------------|
A|---------------- 0------ 5------|--------------------------------|
E| 7------ 0----------------------| 3-------------- 3--------------|
http://classicalguitartablature.blogspot.com/
E| 3------ 2 0 2-- 3--------------|-------- 5------ 3------ 1------|
B| 1------ 0 0 0-- 4------ 4------| 0 3-------------------- 0------|
G| 0-------------- 2-- 2------ 0--| 0---------------------- 0------|
D|---- 2--------------------------| 0-- 0------ 0------ 0----------|
A| 3-------------- 3--------------|-------------------------- 0 1--|
E|--------------------------------| 3---------------------- 3------|
http://classicalguitartablature.blogspot.com/
E|-------- 2 0 2-- 3-------- 5 3--|--------------------------------|
B| 1------ 0 0 0-- 4------ 4------| 0------------------------------|
G| 0------------------ 2----------| 0------ 2------ 0--------------|
D|---- 2--------------------------|---- 0------ 0------ 0-- 3------|
A| 3-------------- 3--------------|-------------------------- 0 1 2|
E|--------------------------------| 3---------------------- 3------|
http://classicalguitartablature.blogspot.com/
E|-------- 2 0 2------------------|---- 8------ 7 5-- 7 3----------|
B|-------- 0 0-- 0 8--10----------|---- 7---------------------- 0--|
G|------ 0 0 0-- 0 8---------- 8--|---- 8---------- 0-------- 0----|
D|---- 2---------- 7------ 7------|-------- 7-------------- 0------|
A| 3------------------------------|--------------------------------|
E|-------------- 8----------------| 7-------------- 0--------------|
http://classicalguitartablature.blogspot.com/
E|---------- 7 5-- 3--------------|----10------------------ 5---- 3|
B|-------- 5---------- 3---- 3----|--------1210-- 8------ 8-- 5----|
G|---- 5------------------ 0-- 0--|-- 9---- 9 9-------- 5----------|
D| 5-- 5---------------- 0--------|--10----1111------ 5------------|
A| 0-------------- 2--------------|-------------- 5----------------|
E|--------------------------------| 8------ 9----------------------|
http://classicalguitartablature.blogspot.com/
E|-------------------------- 0 0--|---------------- 6--------------|
B|-------- 3-------------- 3-- 3--|-------- 1------ 6-- 6 8---- 8--|
G|---- 0---- 0 0-------- 0--------| 0---- 0-- 0-- 0 5---- 7---- 9--|
D|---- 0------ 0------ 0----------|---- 2------ 2-------- 7---- 8--|
A|---------------- 2--------------| 3-------------- 6---- 8---- 9--|
E| 3------------------------------|--------------------------------|
http://classicalguitartablature.blogspot.com/
E| 3------------------------ 0-- 0|---------------- 6--------------|
B|-------- 3-------------- 3-- 3--|-------- 1------ 6-- 6 8---- 8--|
G|------ 0-- 0-- 0---- 0----------| 0---- 0-- 0-- 0 5---- 7---- 9--|
D|---- 0------ 0---- 0-- 0--------|---- 2------ 2-------- 7---- 8--|
A|---------------- 2--------------| 3-------------- 6---- 8---- 9--|
E| 3------------------------------|------------------------------ 3|
http://classicalguitartablature.blogspot.com/
E| 3------------------------------|--------------------------------|
B| 3------------------------------|--------------------------------|
G| 0------------------------------|--------------------------------|
D|--------------------------------|--------------------------------|
A|--------------------------------|--------------------------------|
E|--------------------------------|--------------------------------|
http://classicalguitartablature.blogspot.com/

0 ความคิดเห็น:

แสดงความคิดเห็น