To celebrate the anniversary, I am giving you (finally...) : iPhone LickByNeck !!!!!!

Oh Darling (BASIC)

Beatles's tune fingerstyle chord melody guitar BASIC arrangement played in the key of A.

Oh Darling-Beatles-BASIC ARRANGEMENT played In the key of A.
http://classicalguitartablature.blogspot.com/
E|------------------------| 0---------- 2---- 5----|
B| 1---------- 1----------|------------------------|
G| 1------ 1---- 1--------|------------------------|
D|---- 2-------------- 2--|------------------------|
A|------------------------|------------------------|
E| 0----------------------|------------------------|
http://classicalguitartablature.blogspot.com/
E| 2----------------------|------------ 2------ 5--|
B| 2------ 5-------- 2----|------------ 2------ 2--|
G| 2------ 2------ 2------|-------- 2--------------|
D|---- 2------ 2----------|---- 2---------- 2------|
A| 0----------------------|------------------------|
E|-------------------- 2--| 0----------------------|
http://classicalguitartablature.blogspot.com/
http://classicalguitartablature.blogspot.com/
E| 2------ 0--------------|-------------------- 0--|
B| 0----------------------|------------ 0----------|
G|---------------- 1------|-------- 1------ 1------|
D|---- 2------ 2----------|-- 2--------------------|
A|-------------------- 2--| 2----------------------|
E| 0----------------------|------------------------|
http://classicalguitartablature.blogspot.com/
E| 2-------- 2------------| 2----------------------|
B| 2---------------- 5----|-------- 5---------- 2--|
G|-------- 2--------------|---------------- 2------|
D|---- 4-------- 4--------|---- 4------ 4----------|
A|------------------------|------------------------|
E| 2----------------------| 2----------------------|
http://classicalguitartablature.blogspot.com/
E|------------------------|------------------ 0----|
B| 0------------ 0--------|------------------------|
G|---- 2------ 2----------|------ 2----------------|
D|-------- 4--------------|-- 4------------ 4------|
A| 5----------------------|------------------------|
E|------------------ 2-- 5|------------ 2------ 5--|
http://classicalguitartablature.blogspot.com/
E| 2------ 2-- 2---- 2----| 0----------------------|
B| 3------ 3-- 3-- 5 3----| 0----------------------|
G| 2---------------- 2----|-------- 1-------- 1----|
D|---- 4---------- 4------|---- 2-------- 2--------|
A| 2-------------- 2------|------------------------|
E|-------------------- 2--| 0---------- 4----------|
http://classicalguitartablature.blogspot.com/
E| 2------ 2-- 2----------| 2------ 0--------------|
B| 3------ 3-- 3------ 5--| 0------ 0---------- 2--|
G| 2------ 2-- 2----------| 1-------------- 1------|
D|---- 4-------------- 4--|---- 2------ 2----------|
A| 2-------------- 2------|------------------------|
E|-------------------- 2--| 0----------------------|
http://classicalguitartablature.blogspot.com/
E|------------------------|------------------------|
B| 0----------------------| 3---------- 3----------|
G|---- 2------ 2----------| 2---------- 2----------|
D|-------- 2--------------| 4----------------------|
A| 0-------------- 2-- 4--| 5-- 5-- 5-- 5-- 4-- 2--|
E|------------------------|------------------------|
http://classicalguitartablature.blogspot.com/
E|------------------------|------------------ 5----|
B|------------------------|------------ 7----------|
G| 2-------- 2------------| 4----------------------|
D| 2-------- 2------------| 6----------------------|
A| 0-- 0-- 0-- 0----------|------------------------|
E|---------------- 4-- 2--| 0----------------------|
http://classicalguitartablature.blogspot.com/
E| 2----------------------|------------ 2------ 5--|
B| 2------ 5-------- 2----|------------ 2------ 2--|
G| 2------ 2------ 2------|-------- 2--------------|
D|---- 2------ 2----------|---- 2---------- 2------|
A| 0----------------------|------------------------|
E|-------------------- 2--| 0----------------------|
http://classicalguitartablature.blogspot.com/
E| 2------ 0--------------|-------------------- 0--|
B| 0----------------------|------------ 0----------|
G|---------------- 1------|-------- 1------ 1------|
D|---- 2------ 2----------|-- 2--------------------|
A|-------------------- 2--| 2----------------------|
E| 0----------------------|------------------------|
http://classicalguitartablature.blogspot.com/
E| 2-------- 2------------| 2----------------------|
B| 2---------------- 5----|-------- 5---------- 2--|
G|-------- 2--------------|---------------- 2------|
D|---- 4-------- 4--------|---- 4------ 4----------|
A|------------------------|------------------------|
E| 2----------------------| 2----------------------|
http://classicalguitartablature.blogspot.com/
E|------------------------|------------------ 0----|
B| 0------------ 0--------|------------------------|
G|---- 2------ 2----------|------ 2----------------|
D|-------- 4--------------|-- 4------------ 4------|
A| 5----------------------|------------------------|
E|------------------ 2-- 5|------------ 2------ 5--|
http://classicalguitartablature.blogspot.com/
E| 2------ 2-- 2---- 2----| 0----------------------|
B| 3------ 3-- 3-- 5 3----| 0----------------------|
G| 2---------------- 2----|-------- 1-------- 1----|
D|---- 4---------- 4------|---- 2-------- 2--------|
A| 2-------------- 2------|------------------------|
E|-------------------- 2--| 0---------- 4----------|
http://classicalguitartablature.blogspot.com/
E| 2------ 2-- 2----------| 2------ 0--------------|
B| 3------ 3-- 3------ 5--| 0------ 0---------- 2--|
G| 2------ 2-- 2----------| 1-------------- 1------|
D|---- 4-------------- 4--|---- 2------ 2----------|
A| 2-------------- 2------|------------------------|
E|-------------------- 2--| 0----------------------|
http://classicalguitartablature.blogspot.com/
E|------------------------|------------------------|
B| 0----------------------| 3---------- 3----------|
G|---- 2------ 2----------| 2---------- 2----------|
D|-------- 2--------------| 4----------------------|
A| 0-------------- 2-- 4--| 5-- 5-- 5-- 5-- 4-- 2--|
E|------------------------|------------------------|
http://classicalguitartablature.blogspot.com/
E|------------------------|-------------- 8-- 8-- 7|
B| 2---------- 2----------| 8-------- 8-- 8-- 8----|
G| 2---------- 2----------| 6-------- 6-- 6-- 6-- 7|
D| 2---------- 2----------| 5-------- 5------------|
A| 0-- 0-- 0-- 0-- 0-- 0--| 0-- 0-- 0-- 0 0-- 0----|
E|------------------------|------------------------|
http://classicalguitartablature.blogspot.com/
E|------ 5----------------|------------ 8 7-- 5----|
B| 7------ 7---- 7--------|-------- 7--------------|
G|---- 7---- 7-------- 7--|---- 7------------------|
D|------------------------|------------------------|
A| 5----------------------| 5---------- 5-- 6-- 7--|
E|------------------------|------------------------|
http://classicalguitartablature.blogspot.com/
E| 8---- 7-- 5 7-- 5------|------------ 5---- 5----|
B| 5---- 5-- 5 5-- 5------|-------- 5---------- 8--|
G| 5 5-- 5-- 5 5-- 5-- 5--|---- 5---------- 5------|
D|------------------------|------------------------|
A| 8----------------------| 8----------------------|
E|------------------------|------------------------|
http://classicalguitartablature.blogspot.com/
E| 5------ 5--------------|------------------------|
B| 5------ 5--10------10--|10----10------------ 3--|
G| 6-- 6------ 7------ 7--| 9---- 9------------ 2--|
D|------------ 7 7---- 7--| 7-- 7---------- 2------|
A|------------------------|---------- 4------------|
E| 5---------- 7----------| 8----------------------|
http://classicalguitartablature.blogspot.com/
E|------------------------|-------------- 8-- 8-- 8|
B| 3-- 1------------------|------------------------|
G| 2---------- 2------ 2--| 2------ 2--------------|
D| 2------ 2------ 2------|---- 2------------------|
A| 0----------------------|-------------- 7-- 9----|
E|------------ 2----------| 0-------- 7 9----------|
http://classicalguitartablature.blogspot.com/
E| 7-------- 7------------|---------------------- 7|
B| 7----------------------|------------12--1212----|
G|-------- 8-------- 8----|-------- 8--------------|
D|---- 7---------- 7------|---- 7-------------- 9--|
A|------------------------| 9----------11----------|
E| 7----------11----------|------------------------|
http://classicalguitartablature.blogspot.com/
E|-------- 7--------------|------------------------|
B| 7---- 7----121212------|------------------1212 9|
G| 8----------111111------|--------11----11--------|
D|---- 7------ 9 9---- 9--|---- 9------------ 9----|
A|------------------------| 9----------11-------- 7|
E| 7----------11----------|------------------------|
http://classicalguitartablature.blogspot.com/
E| 7---- 7---- 7---- 7-- 7|-- 6-- 7-------------- 7|
B|------ 9---- 9-------- 8|------ 8---------- 9----|
G| 9---- 9---- 9-------- 8|------ 8----------------|
D|------------------------|------------------------|
A|---- 7-- 7-- 7--1111----| 8-- 8-- 8-- 811----11--|
E|------------------------|------------------------|
http://classicalguitartablature.blogspot.com/
E|------------ 3----------|-- 4-------------- 5----|
B|------------------ 5 3--| 5-------- 7------------|
G|---------------------- 5|------------------------|
D|------------------------| 6----------------------|
A|------------------------|------------------------|
E| 0----------------------| 0----------------------|
http://classicalguitartablature.blogspot.com/
E| 2----------------------|------------ 2------ 5--|
B| 2------ 5-------- 2----|------------ 2------ 2--|
G| 2------ 2------ 2------|-------- 2--------------|
D|---- 2------ 2----------|---- 2---------- 2------|
A| 0----------------------|------------------------|
E|-------------------- 2--| 0----------------------|
http://classicalguitartablature.blogspot.com/
E| 2------ 0--------------|-------------------- 0--|
B| 0----------------------|------------ 0----------|
G|---------------- 1------|-------- 1------ 1------|
D|---- 2------ 2----------|-- 2--------------------|
A|-------------------- 2--| 2----------------------|
E| 0----------------------|------------------------|
http://classicalguitartablature.blogspot.com/
E| 2-------- 2------------| 2----------------------|
B| 2---------------- 5----|-------- 5---------- 2--|
G|-------- 2--------------|---------------- 2------|
D|---- 4-------- 4--------|---- 4------ 4----------|
A|------------------------|------------------------|
E| 2----------------------| 2----------------------|
http://classicalguitartablature.blogspot.com/
E|------------------------|------------------ 0----|
B| 0------------ 0--------|------------------------|
G|---- 2------ 2----------|------ 2----------------|
D|-------- 4--------------|-- 4------------ 4------|
A| 5----------------------|------------------------|
E|------------------ 2-- 5|------------ 2------ 5--|
http://classicalguitartablature.blogspot.com/
E| 2------ 2-- 2---- 2----| 0----------------------|
B| 3------ 3-- 3-- 5 3----| 0----------------------|
G| 2---------------- 2----|-------- 1-------- 1----|
D|---- 4---------- 4------|---- 2-------- 2--------|
A| 2-------------- 2------|------------------------|
E|-------------------- 2--| 0---------- 4----------|
http://classicalguitartablature.blogspot.com/
E| 2------ 2-- 2----------| 2------ 0--------------|
B| 3------ 3-- 3------ 5--| 0------ 0---------- 2--|
G| 2------ 2-- 2----------| 1-------------- 1------|
D|---- 4-------------- 4--|---- 2------ 2----------|
A| 2-------------- 2------|------------------------|
E|-------------------- 2--| 0----------------------|
http://classicalguitartablature.blogspot.com/
E|------------------------|------------------------|
B| 0----------------------| 3---------- 3----------|
G|---- 2------ 2----------| 2---------- 2----------|
D|-------- 2--------------| 4----------------------|
A| 0-------------- 2-- 4--| 5-- 5-- 5-- 5-- 4-- 2--|
E|------------------------|------------------------|
http://classicalguitartablature.blogspot.com/
E|------------------------|------------------------|
B|-------- 2-- 3----------|------------------------|
G| 2------ 2-- 1------ 2--|------------------------|
D|---- 2------ 3------ 2--|------------------------|
A| 0---------- 1------ 0--|------------------------|
E|------------------------|------------------------|
http://classicalguitartablature.blogspot.com/

0 ความคิดเห็น:

แสดงความคิดเห็น