To celebrate the anniversary, I am giving you (finally...) : iPhone LickByNeck !!!!!!

Pipeline (BASIC)

The Ventures' tune fingerstyle chord melody guitar BASIC arrangement played in the key of Em.

Pipeline-The Ventures-BASIC ARRANGEMENT played In the key of Em.
http://classicalguitartablature.blogspot.com/
E|--------------------------------|--------------------------------|
B|--------------------------------|--------------------------------|
G|--------------------------------|--------------------------------|
D|--------------------------------|--------------------------------|
A|--------------------------------|---- 2------ 2------ 2------ 2--|
E|1717161514131110 9 8-- 5 4 3 2 1| 0------ 3------ 0------ 3------|
http://classicalguitartablature.blogspot.com/
E|--------------------------------|--------------------------------|
B|--------------------------------|--------------------------------|
G|--------------------------------|--------------------------------|
D|--------------------------------|--------------------------------|
A|---- 2------ 2------ 2------ 2--|---- 2------ 2------ 2------ 2--|
E| 0------ 3------ 0------ 3------| 0------ 3------ 0------ 3------|
http://classicalguitartablature.blogspot.com/
http://classicalguitartablature.blogspot.com/
E|--------------------------------|--------------------------------|
B|--------------------------------|--------------------------------|
G|--------------------------------| 0------------------------------|
D|--------------------------------| 2------------------------------|
A|---- 2------ 2---- 2-------- 2--|---- 2------ 2------ 2------ 2--|
E| 0------ 3---- 0-------- 3---- 0|-------- 3------ 0------ 3---- 0|
http://classicalguitartablature.blogspot.com/
E|--------------------------------|--------------------------------|
B|--------------------------------|--------------------------------|
G| 0------------------------------| 0------------------------------|
D| 2------------------------------| 2------------------------------|
A|---- 2------ 2------ 2------ 2--|---- 2-------- 2---- 2------ 2--|
E|-------- 3------ 0------ 3---- 0|---------- 3---- 0------ 3---- 0|
http://classicalguitartablature.blogspot.com/
E|--------------------------------|--------------------------------|
B|--------------------------------|--------------------------------|
G| 0------------------------------|--------------------------------|
D| 2------------------------------|-------- 0------ 2------ 0-- 2 4|
A|-- 2-------- 2------ 2------ 2--| 2-- 2------ 2------ 2------ 2--|
E|-------- 3------ 0------ 3------| 0------ 3------ 0------ 3---- 0|
http://classicalguitartablature.blogspot.com/
E|--------------------------------|--------------------------------|
B|--------------------------------|--------------------------------|
G|--------------------------------|--------------------------------|
D|-- 2-- 0-- 2-------- 4------ 2--| 4------ 2------ 0-- 2-- 0------|
A|-- 2-------- 2---- 2-------- 2--|---- 2------ 2------ 2------ 2--|
E|-------- 3------ 0------ 3------| 0------ 3------ 0------ 3------|
http://classicalguitartablature.blogspot.com/
E|------------ 3------ 7-- 5-- 3--|--------------------------------|
B|-------- 5----------------------|--------------------------------|
G|---- 4--------------------------|-------- 0------ 2------ 0-- 2--|
D|--------------------------------| 2-- 2------ 2------ 2------ 2--|
A|--------------------------------| 0------ 3------ 0------ 3------|
E| 0------ 3------ 0------ 3------|--------------------------------|
http://classicalguitartablature.blogspot.com/
E|--------------------------------|--------------------------------|
B| 0------------------ 0----------| 0------------------------------|
G|---- 2-- 0-- 2-------------- 2--|-------- 2------ 0-- 2-- 0------|
D|---- 2------ 2------ 2------ 2--|------ 2---- 2------ 2------ 2--|
A| 0------ 3------ 0------ 3------| 0------ 3------ 0------ 3------|
E|--------------------------------|--------------------------------|
http://classicalguitartablature.blogspot.com/
E|------------ 8------12--10-- 8--| 7------------------------------|
B|--------10----------------------| 7------------------------------|
G|---- 9--------------------------| 8---------- 8---------- 8------|
D|--------------------------------|------------ 9---------- 9------|
A| 0-------------- 0--------------|--------------------------------|
E|-------- 8-------------- 8------| 7------ 7-- 7------ 7-- 7-- 7--|
http://classicalguitartablature.blogspot.com/
E| 8------------------------------| 7------------------------------|
B| 8------------------------------| 7------------------------------|
G| 9---------- 9---------- 9------| 8---------- 8---------- 8------|
D|------------10----------10------|------------ 9---------- 9------|
A|--------------------------------|--------------------------------|
E| 8------ 8-- 8------ 8-- 8-- 8--| 7------ 7-- 7------ 7-- 7-- 7--|
http://classicalguitartablature.blogspot.com/
E| 8------------------------------| 7------------------------------|
B| 8------------------------------| 7------------------------------|
G| 9---------- 9---------- 9------| 8---------- 8---------- 8------|
D|------------10----------10------|------------ 9---------- 9------|
A|--------------------------------|--------------------------------|
E| 8------ 8-- 8------ 8-- 8-- 8--| 7------ 7-- 7------ 7-- 7-- 7--|
http://classicalguitartablature.blogspot.com/
E| 7------------------------------| 5---------- 5-------- 5--------|
B| 7------------------------------| 5---------- 5---------- 5------|
G| 8---------- 8---------- 8------| 5---------- 5---------- 5------|
D|------------ 9---------- 9------| 7------------------------------|
A|--------------------------------| 0------ 0-- 0------ 0-- 0-- 0--|
E| 7------ 7-- 7------ 7-- 7-- 7--|--------------------------------|
http://classicalguitartablature.blogspot.com/
E| 5------------------------------|--------------------------------|
B| 5------------------------------|--------------------------------|
G| 5------------------------------|--------------------------------|
D|--------------------------------|--------------------------------|
A| 0------------------------------|---- 2------ 2------ 2------ 2--|
E|1717161514131110 9 8-- 5 4 3 2 1| 0------ 3------ 0------ 3------|
http://classicalguitartablature.blogspot.com/
E|--------------------------------|--------------------------------|
B|--------------------------------|--------------------------------|
G|--------------------------------|--------------------------------|
D|--------------------------------|--------------------------------|
A|---- 2------ 2------ 2------ 2--|---- 2------ 2------ 2------ 2--|
E| 0------ 3------ 0------ 3------| 0------ 3------ 0------ 3------|
http://classicalguitartablature.blogspot.com/
E|--------------------------------|--------------------------------|
B|--------------------------------|--------------------------------|
G|--------------------------------| 0------------------------------|
D|--------------------------------| 2------------------------------|
A|---- 2------ 2---- 2-------- 2--|---- 2------ 2------ 2------ 2--|
E| 0------ 3---- 0-------- 3---- 0|-------- 3------ 0------ 3---- 0|
http://classicalguitartablature.blogspot.com/
E|--------------------------------|--------------------------------|
B|--------------------------------|--------------------------------|
G| 0------------------------------|--------------------------------|
D| 2------------------------------|-------- 0------ 2------ 0-- 2 4|
A|-- 2-------- 2------ 2------ 2--| 2-- 2------ 2------ 2------ 2--|
E|-------- 3------ 0------ 3------| 0------ 3------ 0------ 3---- 0|
http://classicalguitartablature.blogspot.com/
E|--------------------------------|--------------------------------|
B|--------------------------------|--------------------------------|
G|--------------------------------|--------------------------------|
D|-- 2-- 0-- 2-------- 4------ 2--| 4------ 2------ 0-- 2-- 0------|
A|-- 2-------- 2---- 2-------- 2--|---- 2------ 2------ 2------ 2--|
E|-------- 3------ 0------ 3------| 0------ 3------ 0------ 3------|
http://classicalguitartablature.blogspot.com/
E|------------ 3------ 7-- 5-- 3--|--------------------------------|
B|-------- 5----------------------|--------------------------------|
G|---- 4--------------------------|-------- 0------ 2------ 0-- 2--|
D|--------------------------------| 2-- 2------ 2------ 2------ 2--|
A|--------------------------------| 0------ 3------ 0------ 3------|
E| 0------ 3------ 0------ 3------|--------------------------------|
http://classicalguitartablature.blogspot.com/
E|--------------------------------|--------------------------------|
B| 0------------------ 0----------| 0------------------------------|
G|---- 2-- 0-- 2-------------- 2--|-------- 2------ 0-- 2-- 0------|
D|---- 2------ 2------ 2------ 2--|------ 2---- 2------ 2------ 2--|
A| 0------ 3------ 0------ 3------| 0------ 3------ 0------ 3------|
E|--------------------------------|--------------------------------|
http://classicalguitartablature.blogspot.com/
E|------------ 8------12--10-- 8--| 7------------------------------|
B|--------10----------------------| 7------------------------------|
G|---- 9--------------------------| 8---------- 8---------- 8------|
D|--------------------------------|------------ 9---------- 9------|
A| 0-------------- 0--------------|--------------------------------|
E|-------- 8-------------- 8------| 7------ 7-- 7------ 7-- 7-- 7--|
http://classicalguitartablature.blogspot.com/
E| 8------------------------------| 7------------------------------|
B| 8------------------------------| 7------------------------------|
G| 9---------- 9---------- 9------| 8---------- 8---------- 8------|
D|------------10----------10------|------------ 9---------- 9------|
A|--------------------------------|--------------------------------|
E| 8------ 8-- 8------ 8-- 8-- 8--| 7------ 7-- 7------ 7-- 7-- 7--|
http://classicalguitartablature.blogspot.com/
E| 8------------------------------| 7------------------------------|
B| 8------------------------------| 7------------------------------|
G| 9---------- 9---------- 9------| 8---------- 8---------- 8------|
D|------------10----------10------|------------ 9---------- 9------|
A|--------------------------------|--------------------------------|
E| 8------ 8-- 8------ 8-- 8-- 8--| 7------ 7-- 7------ 7-- 7-- 7--|
http://classicalguitartablature.blogspot.com/
E| 7------------------------------|--------------------------------|
B| 7------------------------------| 1------------------------------|
G| 8---------- 8---------- 8------| 2------ 2------ 2---------- 2--|
D|------------ 9---------- 9------|---- 2------ 2------ 2----------|
A|--------------------------------| 0------ 0------ 0------ 0------|
E| 7------ 7-- 7------ 7-- 7-- 7--|--------------------------------|
http://classicalguitartablature.blogspot.com/
E|------------------ 0------------|--------------------------------|
B|------------ 1-------- 3-- 1----| 0------------------------------|
G| 2------ 2----------------------|-------- 0------ 0---------- 0--|
D|---- 2--------------------------|---- 0------ 0------ 0----------|
A| 0------ 0------ 0------ 0------|--------------------------------|
E|--------------------------------| 3------ 3------ 3------ 3------|
http://classicalguitartablature.blogspot.com/
E|--------------------------------|--------------------------------|
B|------------ 0------ 3-- 1 0----|--------------------------------|
G| 0------ 0---------- 0-- 0 0-- 2|--------------------------------|
D|---- 0--------------------------|-------- 3------ 3---------- 3--|
A|--------------------------------|--------------------------------|
E| 3------ 3------ 3------ 3------| 1------ 1------ 1------ 1------|
http://classicalguitartablature.blogspot.com/
E|--------------------------------|--------------------------------|
B|-------------------- 1-- 0------| 0------------------------------|
G|------------ 2-------------- 2--|-------- 0------ 0---------- 0--|
D| 3------ 3----------------------|---- 0------ 0------ 0----------|
A|--------------------------------|--------------------------------|
E| 1------ 1------ 1------ 1------| 3------ 3------ 3------ 3------|
http://classicalguitartablature.blogspot.com/
E|--------------------------------|--------------------------------|
B|------------ 0------ 3-- 1 0----| 1------------------------------|
G| 0------ 0---------- 0-- 0 0----| 2------ 2------ 2---------- 2--|
D|---- 0--------------------------|---- 2------ 2------ 2----------|
A|--------------------------------| 0------ 0------ 0------ 0------|
E| 3------ 3------ 3------ 3------|--------------------------------|
http://classicalguitartablature.blogspot.com/
E|------------------ 0------------|--------------------------------|
B|------------ 1-------- 3-- 1----| 0------------------------------|
G| 2------ 2----------------------|-------- 0------ 0---------- 0--|
D|---- 2--------------------------|---- 0------ 0------ 0----------|
A| 0------ 0------ 0------ 0------|--------------------------------|
E|--------------------------------| 3------ 3------ 3------ 3------|
http://classicalguitartablature.blogspot.com/
E|--------------------------------|--------------------------------|
B|------------ 0------ 3-- 1 0----|--------------------------------|
G| 0------ 0---------- 0-- 0 0-- 2|--------------------------------|
D|---- 0--------------------------|-------- 3------ 3---------- 3--|
A|--------------------------------|--------------------------------|
E| 3------ 3------ 3------ 3------| 1------ 1------ 1------ 1------|
http://classicalguitartablature.blogspot.com/
E|--------------------------------|--------------------------------|
B|-------------------- 1-- 0------|--------------------------------|
G|------------ 2-------------- 2--| 1------------------------------|
D| 3------ 3----------------------|---- 0------ 0------ 0------ 0--|
A|--------------------------------|--------------------------------|
E| 1------ 1------ 1------ 1------| 0------ 0------ 0------ 0------|
http://classicalguitartablature.blogspot.com/
E|--------------------------------|--------------------------------|
B|--------------------------------|--------------------------------|
G|--------------------------------|--------------------------------|
D|--------------------------------|--------------------------------|
A|--------------------------------|---- 2------ 2------ 2------ 2--|
E| 017161514131110 9 8-- 5 4 3 2 1| 0------ 3------ 0------ 3------|
http://classicalguitartablature.blogspot.com/
E|--------------------------------|--------------------------------|
B|--------------------------------|--------------------------------|
G|--------------------------------|--------------------------------|
D|--------------------------------|--------------------------------|
A|---- 2------ 2------ 2------ 2--|---- 2------ 2------ 2------ 2--|
E| 0------ 3------ 0------ 3------| 0------ 3------ 0------ 3------|
http://classicalguitartablature.blogspot.com/
E|--------------------------------|--------------------------------|
B|--------------------------------|--------------------------------|
G|--------------------------------| 0------------------------------|
D|--------------------------------| 2------------------------------|
A|---- 2------ 2---- 2-------- 2--|---- 2------ 2------ 2------ 2--|
E| 0------ 3---- 0-------- 3---- 0|-------- 3------ 0------ 3---- 0|
http://classicalguitartablature.blogspot.com/
E|--------------------------------|--------------------------------|
B|--------------------------------|--------------------------------|
G| 0------------------------------|--------------------------------|
D| 2------------------------------|-------- 0------ 2------ 0-- 2 4|
A|-- 2-------- 2------ 2------ 2--| 2-- 2------ 2------ 2------ 2--|
E|-------- 3------ 0------ 3------| 0------ 3------ 0------ 3---- 0|
http://classicalguitartablature.blogspot.com/
E|--------------------------------|--------------------------------|
B|--------------------------------|--------------------------------|
G|--------------------------------|--------------------------------|
D|-- 2-- 0-- 2-------- 4------ 2--| 4------ 2------ 0-- 2-- 0------|
A|-- 2-------- 2---- 2-------- 2--|---- 2------ 2------ 2------ 2--|
E|-------- 3------ 0------ 3------| 0------ 3------ 0------ 3------|
http://classicalguitartablature.blogspot.com/
E|------------ 3------ 7-- 5-- 3--|--------------------------------|
B|-------- 5----------------------|--------------------------------|
G|---- 4--------------------------|-------- 0------ 2------ 0-- 2--|
D|--------------------------------| 2-- 2------ 2------ 2------ 2--|
A|--------------------------------| 0------ 3------ 0------ 3------|
E| 0------ 3------ 0------ 3------|--------------------------------|
http://classicalguitartablature.blogspot.com/
E|--------------------------------|--------------------------------|
B| 0------------------ 0----------| 0------------------------------|
G|---- 2-- 0-- 2-------------- 2--|-------- 2------ 0-- 2-- 0------|
D|---- 2------ 2------ 2------ 2--|------ 2---- 2------ 2------ 2--|
A| 0------ 3------ 0------ 3------| 0------ 3------ 0------ 3------|
E|--------------------------------|--------------------------------|
http://classicalguitartablature.blogspot.com/
E|------------ 8------12--10-- 8--| 7------------------------------|
B|--------10----------------------| 7------------------------------|
G|---- 9--------------------------| 8---------- 8---------- 8------|
D|--------------------------------|------------ 9---------- 9------|
A| 0-------------- 0--------------|--------------------------------|
E|-------- 8-------------- 8------| 7------ 7-- 7------ 7-- 7-- 7--|
http://classicalguitartablature.blogspot.com/
E| 8------------------------------| 7------------------------------|
B| 8------------------------------| 7------------------------------|
G| 9---------- 9---------- 9------| 8---------- 8---------- 8------|
D|------------10----------10------|------------ 9---------- 9------|
A|--------------------------------|--------------------------------|
E| 8------ 8-- 8------ 8-- 8-- 8--| 7------ 7-- 7------ 7-- 7-- 7--|
http://classicalguitartablature.blogspot.com/
E| 8------------------------------| 7------------------------------|
B| 8------------------------------| 7------------------------------|
G| 9---------- 9---------- 9------| 8---------- 8---------- 8------|
D|------------10----------10------|------------ 9---------- 9------|
A|--------------------------------|--------------------------------|
E| 8------ 8-- 8------ 8-- 8-- 8--| 7------ 7-- 7------ 7-- 7-- 7--|
http://classicalguitartablature.blogspot.com/
E| 7------------------------------| 5---------- 5-------- 5--------|
B| 7------------------------------| 5---------- 5---------- 5------|
G| 8---------- 8---------- 8------| 5---------- 5---------- 5------|
D|------------ 9---------- 9------| 7------------------------------|
A|--------------------------------| 0------ 0-- 0------ 0-- 0-- 0--|
E| 7------ 7-- 7------ 7-- 7-- 7--|--------------------------------|
http://classicalguitartablature.blogspot.com/
E| 5------------------------------|--------------------------------|
B| 5------------------------------|--------------------------------|
G| 5------------------------------|-------------------- 0----------|
D|--------------------------------|---------- 2--------------------|
A| 0------------------------------|--------------------------------|
E|1717161514131110 9 8-- 5 4 3 2 1| 0------------------------------|
http://classicalguitartablature.blogspot.com/
E|-------------- 0----------------|--------------------------------|
B| 2------------------------------|--------------------------------|
G|--------------------------------|--------------------------------|
D|--------------------------------|--------------------------------|
A|--------------------------------|--------------------------------|
E|--------------------------------|--------------------------------|
http://classicalguitartablature.blogspot.com/

0 ความคิดเห็น:

แสดงความคิดเห็น