To celebrate the anniversary, I am giving you (finally...) : iPhone LickByNeck !!!!!!

Samba Pa Ti (BASIC)

Santana's tune fingerstyle chord melody guitar BASIC arrangement played in the key of G.

Samba Pa Ti-Santana-BASIC ARRANGEMENT played in the key of G.
http://classicalguitartablature.blogspot.com/
E|------------------------ 0-- 3--|--------------------------------|
B|------------ 0-- 1-- 3----------| 3-------------------------- 0--|
G|------ 2------------------------| 0------ 0-------------- 0------|
D|--------------------------------|-------- 0---------- 0----------|
A|--------------------------------|--------------------------------|
E|--------------------------------| 3------------ 3 3--------------|
http://classicalguitartablature.blogspot.com/
E| 2------------------------------|--------------------------------|
B|-- 3---- 3-------------- 3------|------------ 3-------------- 3--|
G|-------- 2-------------- 2------|-------- 0-------------- 0------|
D|---- 4-------------- 4----------|---- 4-------- 4---- 4----------|
A| 2------------ 2 2---------- 2--|--------------------------------|
E|--------------------------------| 0-------------- 0--------------|
http://classicalguitartablature.blogspot.com/
http://classicalguitartablature.blogspot.com/
E|-------------------------- 0 3--|--------------------------------|
B|------------ 0 1---- 3---- 1----| 3-------------------------- 0--|
G|---------- 2--------------------| 0------ 0-------------- 0------|
D|---- 2--------------------------|-------- 0---------- 0----------|
A| 0------------------------------|--------------------------------|
E|--------------------------------| 3------------ 3 3--------------|
http://classicalguitartablature.blogspot.com/
E| 2------------------------------|--------------------------------|
B|-- 3---- 3-------------- 3------|------------ 3-------------- 3--|
G|-------- 2-------------- 2------|-------- 0-------------- 0------|
D|---- 4-------------- 4----------|---- 4-------- 4---- 4----------|
A| 2------------ 2 2---------- 2--|--------------------------------|
E|--------------------------------| 0-------------- 0--------------|
http://classicalguitartablature.blogspot.com/
E|---------------- 7-- 7----------| 5---------- 7------------------|
B|------------ 5-- 5------ 8-- 5--| 5---------- 5------------ 5----|
G|-------- 5----------------------|-------- 5-------------- 5-- 5--|
D|---- 5-------- 5----------------|---- 5-------------- 5----------|
A| 0-------------- 0--------------| 5-------------- 5--------------|
E|--------------------------------|--------------------------------|
http://classicalguitartablature.blogspot.com/
E|---------- 7 7 5----------------| 5------------------------------|
B|---------------- 8---------- 5--|-------- 5-- 5------------------|
G|-------- 5-------------- 5------|-------------------- 7----------|
D|---- 5-------------- 5----------|--------------------------------|
A| 0-------------- 0--------------| 5------------------------------|
E|--------------------------------|--------------------------------|
http://classicalguitartablature.blogspot.com/
E|------------------ 0---------- 0|--------------------------------|
B|-------------------- 3 1 0 1 3--|-------- 1----------------------|
G|--------------------------------| 2------ 2-------------- 2------|
D|--------------------------------|---- 2------------ 2------------|
A|--------------------------------| 0------------ 0 0---------- 0--|
E|--------------------------------|--------------------------------|
http://classicalguitartablature.blogspot.com/
E|------------------ 2---------- 5| 7 5 7-- 5------------------ 5--|
B|---- 3------ 5---- 3 3-------- 5|-- 5---- 5-- 8-- 8-- 5-- 8------|
G| 4-------- 2------ 4-- 4------ 5|-- 5---- 5------ 5--------------|
D|-------- 4------------------ 4--|---------------- 5--------------|
A| 2-------------- 2--------------| 0-------------- 0--------------|
E|--------------------------------|--------------------------------|
http://classicalguitartablature.blogspot.com/
E|--------------------------------|--------------------------------|
B|--------------------------------|------------------------ 5-- 8--|
G|-------- 5----------------------|---------------- 5-- 7----------|
D|---- 5------ 5------------------|-------- 7-- 9------------------|
A| 5------------------------------|--------------------------------|
E|--------------------------------|--------------------------------|
http://classicalguitartablature.blogspot.com/
E|--------------------------------| 2------------------------------|
B| 3-------------------------- 0--|-- 3---- 3-------------- 3------|
G| 0------ 0-------------- 0------|-------- 2-------------- 2------|
D|-------- 0---------- 0----------|---- 4-------------- 4----------|
A|--------------------------------| 2------------ 2 2---------- 2--|
E| 3------------ 3 3--------------|--------------------------------|
http://classicalguitartablature.blogspot.com/
E|--------------------------------|-------------------------- 0 3--|
B|------------ 3-------------- 3--|------------ 0 1---- 3---- 1----|
G|-------- 0-------------- 0------|---------- 2--------------------|
D|---- 4-------- 4---- 4----------|---- 2--------------------------|
A|--------------------------------| 0------------------------------|
E| 0-------------- 0--------------|--------------------------------|
http://classicalguitartablature.blogspot.com/
E|--------------------------------| 2------------------------------|
B| 3-------------------------- 0--|-- 3---- 3-------------- 3------|
G| 0------ 0-------------- 0------|-------- 2-------------- 2------|
D|-------- 0---------- 0----------|---- 4-------------- 4----------|
A|--------------------------------| 2------------ 2 2---------- 2--|
E| 3------------ 3 3--------------|--------------------------------|
http://classicalguitartablature.blogspot.com/
E|--------121011----12--11--------|---------------- 7-- 7----------|
B|------ 0--------------12--10----|------------ 5-- 5------ 8-- 5--|
G|---- 0----------------------12 9|-------- 5----------------------|
D|--------------------------------|---- 5-------- 5----------------|
A|--------------------------------| 0-------------- 0--------------|
E| 0-------------- 0--------------|--------------------------------|
http://classicalguitartablature.blogspot.com/
E| 5---------- 7------------------|---------- 7 7 5----------------|
B| 5---------- 5------------ 5----|---------------- 8---------- 5--|
G|-------- 5-------------- 5-- 5--|-------- 5-------------- 5------|
D|---- 5-------------- 5----------|---- 5-------------- 5----------|
A| 5-------------- 5--------------| 0-------------- 0--------------|
E|--------------------------------|--------------------------------|
http://classicalguitartablature.blogspot.com/
E| 5------------------------------|------------------ 0---------- 0|
B|-------- 5-- 5------------------|-------------------- 3 1 0 1 3--|
G|-------------------- 7----------|--------------------------------|
D|--------------------------------|--------------------------------|
A| 5------------------------------|--------------------------------|
E|--------------------------------|--------------------------------|
http://classicalguitartablature.blogspot.com/
E|--------------------------------|------------------ 2---------- 5|
B|-------- 1----------------------|---- 3------ 5---- 3 3-------- 5|
G| 2------ 2-------------- 2------| 4-------- 2------ 4-- 4------ 5|
D|---- 2------------ 2------------|-------- 4------------------ 4--|
A| 0------------ 0 0---------- 0--| 2-------------- 2--------------|
E|--------------------------------|--------------------------------|
http://classicalguitartablature.blogspot.com/
E| 7 5 7-- 5------------------ 5--|-------- 5---- 5 7-- 5-- 5------|
B|-- 5---- 5-- 8-- 8-- 5-- 8-- 5--|-------- 5---- 5------ 8 5-- 8--|
G|-- 5---- 5------ 5---------- 5--|-------- 5---- 5---- 5 5 5 5 5--|
D|---------------- 5--------------|---- 5---------------- 5---- 5--|
A| 0-------------- 0--------------| 5------------------------------|
E|--------------------------------|--------------------------------|
http://classicalguitartablature.blogspot.com/
E| 3------------------------------|---------- 3 3-- 3-- 5-- 7-- 7--|
B| 3------ 3-- 3 3 5--------------|-------- 3---- 3 3-- 3------ 7--|
G|------ 0 0-- 0-- 0-- 2-- 0-- 0--|---- 4-------------- 4------ 7--|
D|---- 4------ 4-- 4--------------| 5------------------------------|
A| 5------------------------------|--------------------------------|
E|--------------------------------| 3------------------------------|
http://classicalguitartablature.blogspot.com/
E|--------------------------------|---------------- 5-- 5----------|
B|------------ 7------------------|---------- 5---- 5-- 5-- 8-- 7--|
G|-------- 7------------------ 6--|------ 5-------- 5-- 5-- 5-- 5--|
D|---- 7-------------- 7------ 6--|-- 5---------- 5-------- 5-- 7--|
A|--------------------------------|--------------------------------|
E| 7-------------- 7------ 6---- 5|--------------------------------|
http://classicalguitartablature.blogspot.com/
E|--------------------------------|---------- 3 3-- 3-- 5-- 7-- 7--|
B|-------- 7-- 8------10----------|-------- 3---- 3 3-- 3------ 7--|
G|-------- 5-- 5------ 7----------|---- 4-------------- 4------ 7--|
D|---- 7------ 5------ 7----------| 5------------------------------|
A| 5-------------- 7----------10--|--------------------------------|
E|------------------------10----12| 3------------------------------|
http://classicalguitartablature.blogspot.com/
E|--------------------------------|---------------- 5-- 5----------|
B|------------ 7------------------|---------- 5---- 5-- 5-- 8-- 7--|
G|-------- 7------------------ 6--|------ 5-------- 5-- 5-- 5-- 5--|
D|---- 7-------------- 7------ 6--|-- 5---------- 5-------- 5-- 7--|
A|--------------------------------|--------------------------------|
E| 7-------------- 7------ 6---- 5|--------------------------------|
http://classicalguitartablature.blogspot.com/
E|--------------------------------|------------------------ 3-- 5--|
B|-------- 7-- 8------10----------|------------ 3 3 3-- 5-- 3-- 5--|
G|-------- 5-- 5------ 7----------|------------ 4 4 4-- 4-- 4-- 5--|
D|---- 7------ 5------ 7----------|------------ 5 5 5-- 5----------|
A| 5-------------- 7----------10--|-------------------------- 5----|
E|------------------------10----12| 3---- 3 3---- 3 3---- 3 3---- 5|
http://classicalguitartablature.blogspot.com/
E|-- 7----------------------------|------------------------ 3-- 5--|
B|-- 5----------------------------|------------ 3 3 3-- 5-- 3-- 5--|
G|-- 5----------------------------|------------ 4 4 4-- 4-- 4-- 5--|
D|--------------------------------|------------ 5 5 5-- 5----------|
A|--------------------------------|-------------------------- 5----|
E|------ 5 5---- 5 5---- 5 5-- 0--| 3---- 3 3---- 3 3---- 3 3---- 5|
http://classicalguitartablature.blogspot.com/
E|--------------------------------|------------------------ 3-- 5--|
B|-- 3 5--------------------------|------------ 3 3 3-- 5-- 3-- 5--|
G|-- 5----------------------------|------------ 4 4 4-- 4-- 4-- 5--|
D|--------------------------------|------------ 5 5 5-- 5----------|
A|--------------------------------|-------------------------- 5----|
E|------ 5 5---- 5 5---- 5 5-- 0--| 3---- 3 3---- 3 3---- 3 3---- 5|
http://classicalguitartablature.blogspot.com/
E|-- 7----------------------------|------------------------ 3-- 5--|
B|-- 5----------------------------|------------ 3 3 3-- 5-- 3-- 5--|
G|-- 5----------------------------|------------ 4 4 4-- 4-- 4-- 5--|
D|--------------------------------|------------ 5 5 5-- 5----------|
A|--------------------------------|-------------------------- 5----|
E|------ 5 5---- 5 5---- 5 5-- 0--| 3---- 3 3---- 3 3---- 3 3---- 5|
http://classicalguitartablature.blogspot.com/
E|--------------------------------|----10--------------------------|
B|-- 3 5---------------------- 3--|----10--------------------------|
G|-- 5----------------------------|-- 9----------------------------|
D|--------------------------------|-- 9----------------------------|
A|--------------------------------|10------------------------------|
E|------ 5 5---- 5 5---- 5 5-- 0--|--------------------------------|
http://classicalguitartablature.blogspot.com/

0 ความคิดเห็น:

แสดงความคิดเห็น